Finch

Song For You

Finch

bass

save to print version add songbook text version e-mail correct tuner
chordsukulelecavacokeyboardtabbassdrumsharmonicaflute Guitar Pro
close

there isn't a video lesson for this song

chords

Song For You

	  		

Verse:
G-00000-2/3p5h8-888888-2560-000000
D-------2/3p3h6 678046 -----------
A---2---------2--------2--------2-
E--------------------------------- x 8

Chorus
G---------------2/3/4/5p0-----
D-----------------------------
A-----2h5p0-5555p7------------
E---555555--666677--223400----  x2

Verse x 8
Chorus x 2

Bridge:
G-4h5555555p0--666666--121212121212
D------5666--h3h4h4h0--121212121211
A----------------------------------
E--x------x-----xx------x------x-xx

Chorus x 4

		  

See also:

bass Coldplay - A Whisper bass Eric Clapton - Layla bass Eric Clapton - Cocain (ver. 2) bass The Beatles - A Day in the Life bass Coldplay - The Scientist (ver. 2) bass Coldplay - Clocks (ver. 3)
e-chords

Other versions:

bass Finch - Song For You
auto scroll beats size up size down change color hide chords drawings
tab show chords e-chords YouTube Clip e-chords hide all tabs e-chords go to top tab

share