Face To Face

home > Face To Face

Everythings Your Fault Bass Tab

Face To Face

Difficulty: nolevelnolevel

tuner correct add songbook print version text version save to e-mail
chordsukulelecavacokeyboardtabbassdrumsharmonicsflute Guitar Pro
chords

Everythings Your Fault

  		

 - everything's your fault
tabbed by: vasily schpraga
_____________________________________

intro

bass starts at 00:05

|---------------------|------|
|---------------------|------|
|------22------33-33--|------|
|--00------33---------|--3*--|
                    x4
no bass till 00:39

|----------------------------------|
|----------------------2>----------|
|-------2>--------3>-----------2>--|
|--3>--------0>-----------3>-------|

every single thing's your fault..

|------------------|
|------------------|
|------22------33--|
|--33------00------| x10

bridge

|----------------------------------------------------------|
|-------12-12-------12-12-------12-12-------12-12------9-9-|
|-10-10-------10-10-------10-10-------10-10-------10/7-----|
|----------------------------------------------------------|

|---------------------------------------------------------|
|-----9-9-----9-9-----9-9-----7-7-----7-7-----7-7-----7-7-| 
|-7-7-----7-7-----7-7-----5-5-----5-5-----5-5-----5-5-----| 
|---------------------------------------------------------| 

|----------------------------------|
|-----5-5-----5-5-----5-5-----5-5--|
|-3-3-----3-3-----3-3-----3-3------|
|----------------------------------| play the whole thing x 4

|---------------|
|---------------|
|--5>--3>-2-3>--| 
|---------------| x2

a little fill is played here the second time but i cant really hear it so just come up with something.

every single thing's your fault

|------------------|
|------------------|
|------22------33--|
|--33------00------| x4

have you heard..

|--------------------------------------|
|----------------------2>--------------|
|-------2>--------3>-----------2>--3>--|
|--3>--------0>-----------3>-----------|

every single thing's your fault..

|---------------------|------|
|---------------------|------|
|------22------33-33--|------|
|--00------33---------|--3*--|
                   x10
pause

|---------|
|---------|
|--333----|
|------3--|

________________________________________

enjoy playing!
kick ass song!

	  

Search Paypal
auto scroll beats size up size down change color hide chords drawings
tab show chords e-chords YouTube Clip e-chords hide all tabs e-chords go to top tab