Dream Theater

As I Am (ver. 2)

Dream Theater

bass Easy easy

save to print version add songbook text version e-mail correct tuner
chordsukulelecavacokeyboardtabbassdrumsharmonicaflute Guitar Pro
close

there isn't a video lesson for this song

chords

As I Am (ver. 2)

	  		


 -  
   train of thought

BY PATO MTZ

this is te first song that i tab, this song isnt already released but i make an advance......i hope that is good, i work a lot to tab it but ok....

  Riff A 8x     Riff B 4x	     Riff C 4x
D---------|-------------------|--------------------------------|
A---------|-------7-----7-----|---------7----7-----6-4---------|
E---------|----------5-----6--|----0--------5---6--------6-4~--|
B---0~~~--|---0~--------------|--------------------------------|


   Riff D                   	       Riff E                                 
|--------------|--------------|--------------|----------------|
|--------------|--------------|--------------|----------------|
|--0—--32323---|--0---323232--|--0----32323--|--0---444-222---|
|--------------|--------------|--------------|----------------|

            
|------|------------|
|-Riff-|------222---|
|--D---|--444-------|
|------|------------|

  -Vocals Enter
Riff D                   	       Riff E                                 
|--------------|--------------|--------------|----------------|
|--------------|--------------|--------------|----------------|
|--0—--32323---|--0---323232--|--0----32323--|--0---444-222---|
|--------------|--------------|--------------|----------------|

|------|------------|---Repeat----|
|-Riff-|------222---|---after-----|
|--D---|--444-------|---Riff-D----|
|------|------------|-------------|

   Riff F 4x
|-------------------------------------|
|-------------------------------------|
|--7~--5~--3~---7-6-8-7~--5~--3~--2~--|
|-------------------------------------|

-CHORUS
|--------|--------|--------|-----------|--------|--------|--------|---------|
|--------|--------|--------|-----------|--------|--------|--------|---------|
|--------|----3---|----3---|---4h644---|--------|----3---|----3---|----4-4-4|
|1---1-3-|4-----1-|3-----1-|2--------23|1---1-3-|4-----1-|3-----1-|2-2------|


|--------|--------|--------|-----------|--------|--------|--------|-------|
|--------|--------|--------|-----------|--------|--------|--------|-------|
|--------|----3---|----3---|---4h644---|--------|----3---|----3---|----4-4|
|1---1-3-|4-----1-|3-----1-|2--------23|1---1-3-|4-----1-|3-----1-|2-2----|

|------|------|------|------|-----------|
|-Riff-|-Riff-|-Riff-|-Riff-|------222--|	                                
|-C-4x-|--D---|--E---|--D---|--444------|
|------|------|------|------|-----------|


|------|------|------|------|-----------|
|-Riff-|-Riff-|-Riff-|-Riff-|------222--|	                                
|-C-4x-|--D---|--E---|--D---|--444------|
|------|------|------|------|-----------|

    Riff F 4x
|-------------------------------------|
|-------------------------------------|
|--7~--5~--3~---7-6-8-7~--5~--3~--2~--|
|-------------------------------------|


-CHORUS

|--------|--------|--------|-----------|--------|--------|--------|---------|
|--------|--------|--------|-----------|--------|--------|--------|---------|
|--------|----3---|----3---|---4h644---|--------|----3---|----3---|----4-4-4|
|1---1-3-|4-----1-|3-----1-|2--------23|1---1-3-|4-----1-|3-----1-|2-2------|


|--------|--------|--------|-----------|--------|--------|--------|-------|
|--------|--------|--------|-----------|--------|--------|--------|-------|
|--------|----3---|----3---|---4h644---|--------|----3---|----3---|----4-4|
|1---1-3-|4-----1-|3-----1-|2--------23|1---1-3-|4-----1-|3-----1-|2-2----|


|--------|--------|--------|--------|--------|--------|--------|--------|
|--------|--------|--------|--------|--------|--------|--------|------6-|
|--------|2~------|----6-5-|4~------|--------|2~------|----6-5-|4~--7---|
|1~------|----1-2-|3~------|-----2-3|1~------|----1-2-|3~------|--------|


|--------|--------|--------|--------|--------|--------|--------|--------|
|--------|--------|--------|--------|--------|--------|--------|--------|
|--------|2~------|----6-5-|4~------|--------|2~------|----6-5-|4-4-4-4-|
|1~------|----1-2-|3~------|-----2-3|1~------|----1-2-|3~------|--------|


|---------------------------------|
|---------------------------------|
|--3~-5~-7-6-8-7-6-5--3~-5~-7~----|
|---------------------------------|


|--------------------------------------------|
|--------------------------------------------|
|--3~-5~-7-6-8-7-6-5--3~-5~-7~-5-6-5--5-6-5--|
|--------------------------------------------|


|--------------------------------------------|
|--------------------------------------------|
|--3~-5~-7-6-8-7-6-5--3~-5~-7~-5-6-5-4-3-2---|
|--------------------------------------------|


|--------------------------------------------|
|--------------------------------------------|
|--3~-5~-7-6-8-7-6-5--3~-5~-7~-5-6-5--5-6-5--|
|--------------------------------------------|


|------|
|-Riff-|
|-C-4x-|
|------|

|--------|--------|--------|--------|--------|--------|--------|-------|
|--------|--------|--------|--------|--------|--------|--------|-------|
|--------|--------|--------|--------|--------|--------|--------|----4-4|
|1-------|4-------|3-------|2-------|1-------|4-------|3-------|2-2----|

-OUTRO
|------|
|-Riff-|
|-C-8x-|
|------|

there are some errors that i will be working on it
Pato Mtz

		  

See also:

bass Slipknot - 515 bass Slipknot - Duality bass Slipknot - Liberate bass Slipknot - Iowa bass Manowar - The Gods Made Heavy Metal bass Seether - Pig
e-chords

Other versions:

bass Dream Theater - As I Am bass Dream Theater - As I Am (ver. 2)
auto scroll beats size up size down change color hide chords drawings
tab show chords e-chords YouTube Clip e-chords hide all tabs e-chords go to top tab

share