Doobie Brothers

home > Doobie Brothers

Listen To The Music Bass Tab

Doobie Brothers

Difficulty: BeginnerBeginner

tuner correct add songbook print version text version save to e-mail
chordsukulelecavacokeyboardtabbassdrumsharmonicsflute Guitar Pro
chords

Listen To The Music

	  

 
 
Album: i have no idea :D
Tabber: SkiL
comments to [email protected]

  Verse
G|-----------|
D|-----------|
A|-7----77---| 6x
E|---7-7---7-|

G|---------------------------------------------------56789-|
D|---------------------------------------------44-55-------|
A|-7-----77-6-5-4----44---2----22-----44-55-77-------------|
E|---7-7----------4-4---4---2-2---2-5----------------------|

G|-----------|
D|-----------|
A|-7----77---| 4x
E|---7-7---7-|

G|----------------------------------------------------56789-|
D|----------------------4-----------------------44-55-------|
A|-7-----77-----44-55-77---7----77-----44-55-77-------------|
E|---7-7----7-5--------------7-7----7-5---------------------|
  
  Chorus
G|-----------|
D|-----------|
A|-7----77---|
E|---7-7---7-|

G|------------------------|
D|------------------------|
A|-4----44-----444-55678--| 3x
E|---44-----55------------|

G|---------------------------------------------|
D|---------------------------------------------|
A|-9--99-11121112-1212-1111-99-77-55-----------|
E|--99-------------------------------99-77-530-|

- Verse
- Chorus
- break

G|------------------------|	                __		
D|------------------------|		     |		  
A|-4----44-----444-55678--| 3x		     |		  
E|---44-----55------------|		     |		   
				     | repeat 6 times	  
G|---------------------------------------------|	     |	
D|---------------------------------------------|	     |	
A|-9--99-11121112-1212-1111-99-77-55-----------|	     |
E|--99-------------------------------99-77-530-|	     |
                                                       --
Have fun
plz rate my tabs

	  

there isn't a video lesson for this song

request
Search
auto scroll beats size up size down change color hide chords drawings
tab show chords e-chords YouTube Clip e-chords hide all tabs e-chords go to top tab