Creedence Clearwater Revival

home > Creedence Clearwat...

Tearin Up The Country Bass Tab

Creedence Clearwater Revival

Difficulty: nolevelnolevel

by educastilho

tuner correct add songbook print version text version save to e-mail
chordsukulelecavacokeyboardtabbassdrumsharmonicsflute Guitar Pro
chords

Tearin Up The Country

  		
  Intro 
  Q=222(8=s8/shuffle feel) 
  4/4 
  Gtr I 
   Q  Q  Q  Q    Q  Q  Q  Q    Q  Q  Q  Q    E E Q  Q  Q 
G|-------------|-------------|-------------|--------------|| 
D|-------------|-------------|-------------|--------------|| 
A|-5-----------|-5-----------|-5-----------|-5---------4--|| 
E|-------5-----|-------5-----|-------5-----|-----5--7-----|| 


  1st & 2nd Verses 
     Q  Q  Q  Q    Q  Q  Q  Q    Q  Q  Q  Q    Q  Q  Q  Q 
G||--------------|-------------|-------------|-------------| 
D||o-------------|-------------|-------------|-------------| 
A||o-5-----------|-5-----------|-5-----------|-5--------4--| 
E||--------5-----|-------5-----|-------5-----|----5--7-----| 


   Q  Q  Q  Q    Q  Q  Q  Q    Q  Q  Q  Q    Q  Q  Q  Q 
G|-------------|-------------|-------------|--------------| 
D|-------------|-------------|-------------|--------------| 
A|-5-----------|-5-----5-----|-------------|--------------| 
E|-------5-----|-------------|-5-----0-----|-5-----0------| 


   Q  Q  Q  Q    Q  Q  Q  Q    Q  Q  Q  Q    Q  Q  Q  Q 
G|-------------|-------------|-------------|--------------| 
D|-------------|-------------|-------------|--------------| 
A|-------------|-------------|-------------|--------------| 
E|-5-----0-----|-5-----0-----|-5-----0-----|-5-----0------| 


   Q  Q  Q  Q    Q  Q  Q  Q    Q  Q  Q  Q    Q  Q  Q  Q 
G|-------------|-------------|-------------|---------------|| 
D|-------------|-------------|-------------|--------------o|| 
A|-------------|----------4--|-5-----------|-5--------4---o|| 
E|-5-----0-----|-5-----7-----|-------5-----|----5--7-------|| 


  Chorus 
  Segno $ 
     Q  Q  Q  Q    Q  Q  Q  Q    Q  Q  Q  Q    Q  Q  Q  Q 
G||--------------|-------------|-------------|-------------| 
D||o-------------|-------------|-------------|-------------| 
A||o-5-----------|-5-----------|-5-----------|-5--------4--| 
E||--------5-----|-------5-----|-------5-----|----5--7-----| 


   Q  Q  Q  Q    Q  Q  Q  Q    Q  Q  Q  Q    Q  Q  Q  Q 
G|-------------|-------------|-------------|--------------| 
D|-------------|-------------|-------------|--------------| 
A|-5-----------|-5-----5-----|-------------|--------------| 
E|-------5-----|-------------|-5-----0-----|-5-----0------| 


   Q  Q  Q  Q    Q  Q  Q  Q    Q  Q  Q  Q    Q  Q  Q  Q 
G|-------------|-------------|-------------|--------------| 
D|-------------|-------------|-------------|--------------| 
A|-------------|-------------|-------------|--------------| 
E|-5-----0-----|-5-----0-----|-5-----0-----|-5-----0------| 


                                   To Coda 
   Q  Q  Q  Q    Q  Q  Q  Q    Q  Q  Q  Q    Q  Q  Q  Q 
G|-------------|-------------|-------------|--------------|| 
D|-------------|-------------|-------------|--------------|| 
A|-------------|----------4--|-5-----------|-5--------4---|| 
E|-5-----0-----|-5-----7-----|-------5-----|----5--7------|| 


 Guitar Solo & 3rd Verse 
   Q  Q  Q  Q    Q  Q  Q  Q    Q  Q  Q  Q    Q  Q  Q  Q 
G|-------------|-------------|-------------|--------------| 
D|-------------|-------------|-------------|--------------| 
A|-5-----------|-5-----------|-5-----------|-5--------4---| 
E|-------5-----|-------5-----|-------5-----|----5--7------| 


   Q  Q  Q  Q    Q  Q  Q  Q    Q  Q  Q  Q    Q  Q  Q  Q 
G|-------------|-------------|-------------|--------------| 
D|-------------|-------------|-------------|--------------| 
A|-5-----------|-5-----5-----|-------------|--------------| 
E|-------5-----|-------------|-5-----0-----|-5-----0------| 


   Q  Q  Q  Q    Q  Q  Q  Q    Q  Q  Q  Q    Q  Q  Q  Q 
G|-------------|-------------|-------------|--------------| 
D|-------------|-------------|-------------|--------------| 
A|-------------|-------------|-------------|--------------| 
E|-5-----0-----|-5-----0-----|-5-----0-----|-5-----0------| 


                               (2nd time) Dal Segno al Coda 
   Q  Q  Q  Q    Q  Q  Q  Q    Q  Q  Q  Q    Q  Q  Q  Q 
G|-------------|-------------|-------------|---------------|| 
D|-------------|-------------|-------------|--------------o|| 
A|-------------|----------4--|-5-----------|-5--------4---o|| 
E|-5-----0-----|-5-----7-----|-------5-----|----5--7-------|| 


 Outro 
 Coda & 
                                    |-3-|     |-3-| 
   Q  Q  Q  Q    Q  Q  Q  Q    E E E E E E E E E E 
G|-------------|-------------|---------------------| 
D|-------------|-------------|---------------------| 
A|-5-----3-----|-------------|---------------------| 
E|-------------|-7-----6-----|-5---5-5-5-5---5-5-5-| 


  q  q  q  Q    W          +W 
G|-------------|----------|--------*| 
D|-------------|----------|--------*| 
A|-------------|----------|--------*| 
E|-5--5--5-----|-5--------|-(5)----*| 

************************************ 
Duration Legend 

W - whole; H - half; Q - quarter; E - 8th; S - 16th; a - acciaccatura;  
+ - note tied to previous; . - note dotted; 
Duration letters will always appear directly above the note/fret number it represents the 
duration for.  Duration letters with no fret number below them represent rests. 
Uncapitalized letters represent notes that are staccato (1/2 duration).  

|  (n)  -  note tied to previous 
| |-3-| -  triplet 
************************************* 
	  

Full key step upFull key step up
Half key step upHalf key step up
Half key step downHalf key step down
Full key step downFull key step down
Search Paypal
auto scroll beats size up size down change color hide chords drawings
tab show chords e-chords YouTube Clip e-chords hide all tabs e-chords go to top tab