Creedence Clearwater Revival

home > Creedence Clearwat...

I heard through the Grapevine Bass Tab

Creedence Clearwater Revival

Difficulty: BeginnerBeginner

by Londero%5F

tuner correct add songbook print version text version save to e-mail
chordsukulelecavacokeyboardtabbassdrumsharmonicsflute Guitar Pro
chords

I heard through the Grapevine

	  Creedence Clearwater Revival 
I heard it through the Grapevine  

Intro 
|-----------------------| 
|-----------------------| 
|-5-5-5-5-5-5-5--2-3--5-| 
|-----------------------| 

Oo.. Bet you're... 
|--------------------------------------------| 
|--------------------------------------------| 
|-5--5-5--5-5--5-5-8-------------------------| 
|---------------------5--5-5-4-3--3-3--3-3-0-| 

wich some... 
|-------------------------------------------| 
|------------------5-6-7--7-7-6-5--5-5--5-5-| 
|5--5-5--5-5--5-5---------------------------| 
|-------------------------------------------| 

It took me … 
|-----------------------------------------| 
|----------5------------------------------| 
|2-2-2-5-----2-3-4-5--5-5-0---------------| 
|--------3------------------3--3-3--3-3-0-| 

Oo.. I heard it... 
|---------------------------------------| 
|----2/5--------------------------------| 
|5-5-----5--5-5--5-5-8------5/8---------| x2 
|----------------------3-3------3--3-3-0| 

3º Refrão inverter as estrofes. 

Espero q tenha ajudado! 
Qualqr duvida [email protected] 
Bruno Bertagnolli Londero / 2007 


	  

there isn't a video lesson for this song

request
Search Paypal
auto scroll beats size up size down change color hide chords drawings
tab show chords e-chords YouTube Clip e-chords hide all tabs e-chords go to top tab