Choking Victim

home > Choking Victim

I Am Just A Choking Victim Bass Tab

Choking Victim

Difficulty: nolevelnolevel

tuner correct add songbook print version text version save to e-mail
chordsukulelecavacokeyboardtabbassdrumsharmonicsflute Guitar Pro
chords

I Am Just A Choking Victim

  		

 "(I Am Just A) Choking Victim"
By Jordan Moffitt
[email protected]

Verse


G-------------------------------------
D----5--------7-----------------------
A-33--3-55-5--------------------------
E--------------------3333-3-3333------

G-------------------------------------
D----5--------7-----------------------
A-33--3-55-5--------------------------
E--------------------3333-3-3333------


G-------------------------------------
D----5--------7----7777-7-7777--------
A-33--3-55-5--------------------------
E-------------------------------------

Chorus


G-------------------------------------
D-------------------------------------
A-333-555-----------------------------
E------------333-333------------------

	  

Search Paypal
auto scroll beats size up size down change color hide chords drawings
tab show chords e-chords YouTube Clip e-chords hide all tabs e-chords go to top tab