Blink 182

home > Blink 182

Greatest hits/bass Bass Tab

Blink 182

Difficulty: nolevelnolevel

by europeu

tuner correct add songbook print version text version save to e-mail
chordsukulelecavacokeyboardtabbassdrumsharmonicsflute Guitar Pro
chords

Greatest hits/bass

  		Carousel 
 
Intro 
G|--11-11--12--14--12-11---------6-6--7--9--7--6---| 
D|-0---------------------12----7-----------------7-| 
A|-------------------------------------------------| 
E|-------------------------------------------------| 
 
 
G|--9-9-11-12-11-9-11------7-----7---7-| 
D|-9-------------------5-5---5-5---5---| 
A|-------------------------------------| 
E|-------------------------------------| 
 
 
G|--11-11--12--14--12-11---------6-6--7--9--7--6---| 
D|-0---------------------12----7-----------------7-| 
A|-------------------------------------------------| 
E|-------------------------------------------------| 
 
G|---9-9-11-12-12-11-11--77777777-11-11-11-11-9999-11-11-11-11-| 
D|-9---------------------55555555-0--0--0--0--7777-9--9--9--9--| 
A|-------------------------------------------------------------| 
E|-------------------------------------------------------------| 
 
 
G|--7777 
D|--5555 
A|------| 
E|------| 
 
 
G|----------------------------------------| 
D|----------------------------------------| 
A|-55555555-------------------------------| 
E|-----------55555555--77777777--33333333-| 
 
 
G|-11-11-11-11-11-11-11-11--99999999--11-11-11-11-11-11--77777777-| 
D|----------------------------------------------------------------| 
A|----------------------------------------------------------------| 
E|----------------------------------------------------------------| 
 
Bridge 
G|---------------------------------------------------| 
D|---------------------------------------------------| 
A|-55555555-7----------------------10-10-10-10--9--7-| 
E|------------55555555--77777777-9-------------------| 
 
 
G|---------------------------------------------------| 
D|---------------------------------------------------| 
A|-55555555-7----------------------10-10-10-10--9--7-| 
E|------------55555555-7--33333333-------------------| 
 
 
Verse X4 
G|------------------------------------------------------------| 
D|------------------------------------------------------------| 
A|--55555555--------------------10-10-10-10-10-10-10-10-10-10-| 
E|------------55555555-77777777-------------------------------| 
 
Chorus X4 
G|-----------------------------------| 
D|-----------------------------------| 
A|-55555555--77777777--12-x8---10----|x8 
E|-----------------------------------| 
 
Bridge 
G|---------------------------------------------------| 
D|---------------------------------------------------| 
A|-55555555-7----------------------10-10-10-10--9--7-| 
E|------------55555555--77777777-9-------------------| 
 
 
G|---------------------------------------------------| 
D|---------------------------------------------------| 
A|-55555555-7----------------------10-10-10-10--9--7-| 
E|------------55555555-7--33333333-------------------| 
 
Verse X4 
G|------------------------------------------------------------| 
D|------------------------------------------------------------| 
A|--55555555--------------------10-10-10-10-10-10-10-10-10-10-| 
E|------------55555555-77777777-------------------------------| 
 
G|-11-11-11-11-11-11-11-11--99999999-11-x8--77777777-| 
D|---------------------------------------------------| 
A|---------------------------------------------------| 
E|---------------------------------------------------| 
 
 
Guitar Solo Part 
G|---------------------------| 
D|---------------------------| 
A|-5-------------------------| 
E|--------5-------7--------3-| 
 
Chorus X4 
G|-----------------------------------------------------| 
D|-----------------------------------------------------| 
A|-55555555--77777777--12-x8---10----------------------|x8 
E|-----------------------------------------------------| 
 
 
M+ms 
 
G:-----------------------------------------------------------------| 
D:-2-2-2-2-2-2-2-2-------------------------------------------------| 
A:-----------------2-2-2-2-2-2-2-2-4-4-4-4-4-4-4-4-0-0-0-0-0-0-0-0-| 
E:-----------------------------------------------------------------| 
 
G:-----------------------------------------------------------------| 
D:-----------------------------------------------------------------| 
A:-----------------2-2-2-2-2-2-2-2-4-4-4-4-4-4-4-4-0-0-0-0-0-0-0-0-| 
E:-0-0-0-0-0-0-0-0-------------------------------------------------| 
 
Chorus 
G:--------------------------------| 
D:--------------------------------| 
A:------------------------2-2-2-2-| 
E:2-2-2-2-5-5-5-5-0-0-0-0---------| 
 
Dammit 
 
G|---------------------------| 
D|---------------------------| 
A|-33333---------------------| 
E|--------33333-55555-11111--| 
 
Chorus 
G|-------------------------------------------------------| 
D|-------------------------------------------------------| 
A|-333333333333------------------------------------------| 
E|---------------333333333333-555555555555-1111111111111-| 
 
Bridge (played v.slowly as elec guitar is picking) 
G|----------------------------------------| 
D|----------------------------------------| 
A|--3----------3--------------------------| 
E|----3--5--1-----3--5--1-----------------| 
 
Josie 
 
g-44444444444444444444444444444444 
d-44444444666666662222222222222222 
a----------------------------------| 
e----------------------------------|  2 times 
 
g-44444444444444448888888844444444 
d-44444444666666666666666622222222 
a---------------------------------| 
e---------------------------------| 
 
g-44444444444444444444444444444444 
d-44444444666666662222222222222222 
a---------------------------------| 
e---------------------------------| 
 
yeah my girlfriend.... 
g-----------------------------------| 
d-----------------------------------| 
a-22222222--------------------------| 
e---------2222222200000000000000000-| 
 
g----------------------------------| 
d----------------------------------| 
a-222222224444444400000000000000000 
e---------------------------------- repeat last two lines 
yeah just because... 
g---------| 
d---------| 
a-22222222 
e--------- 
 
second verse 
and my girlfriend....... 
g-----------------------------------| 
d-----------------------------------| 
a-22222222--------------------------| 
e---------2222222200000000000000000-| 
 
g----------------------------------| 
d----------------------------------| 
a-222222224444444400000000000000000 
e---------------------------------- repeat last two lines 
 
and when......... 
d----------------------------------| 
g----------------------------------| 
a----------------------------------| 
e-222222222222222200000000000000000 
 
d----------------------------------| 
g----------------------------------| 
a-222222222222222222222222222222222 
e---------------------------------- 
 
d-----------------------------------| 
g-----------------------------------| 
a-----------------44444444444444444-| 
e-2222222222222222------------------| 
 
d----------------------------------| 
g----------------------------------| 
a----------------------------------| 
e-000000000000000000000000000000000 
 
I know that everything........ 
d-----------------------------------| 
g-----------------------------------| 
a-22222222--------------------------| 
e---------222222220000000044442222--| two times 
 
g----------| 
d----------| 
a-222222222 
e---------- 
 
Yeah my girlfriend: 
g-----------------------------------| 
d-----------------------------------| 
a-22222222--------------------------| 
e---------2222222200000000000000000-| 
 
g----------------------------------| 
d----------------------------------| 
a-222222224444444400000000000000000 
e---------------------------------- repeat last two lines 
 
and when......... 
d----------------------------------| 
g----------------------------------| 
a----------------------------------| 
e-222222222222222200000000000000000 
 
d----------------------------------| 
g----------------------------------| 
a-222222222222222222222222222222222 
e---------------------------------- 
 
d-----------------------------------| 
g-----------------------------------| 
a-----------------44444444444444444-| 
e-2222222222222222------------------| 
 
d----------------------------------| 
g----------------------------------| 
a----------------------------------| 
e-000000000000000000000000000000000 
 
I know that everything........ 
d-----------------------------------| 
g-----------------------------------| 
a-22222222--------------------------| 
e---------2222222200000000444422222-| four times 
 
g----------| 
d----------| 
a-222222222 
e---------- 
 
Then the bass play the same as in the bass intro 
 
and then: 
 
I know that everything........ 
d-----------------------------------| 
g-----------------------------------| 
a-22222222--------------------------| 
e---------2222222200000000444422222-| four times 
 
 
what?s my age again? 
 
 
Intro/Verse 1                           Only a part of verse 1 
G:-----------------------------------*--------------------------------| 
D:-----------------------------------*--------------------------------| 
A:-2-2-2-2---------4-4-4-4--6-6-6-6--*-4-4-4-4-4-4-4-4--6-6-6-6-6-6-6-| 
E:---------2-2-2-2-------------------*--------------------------------| 
 
 
Only a part of verse 2 
G:-----------------------------------| 
D:-----------------------------------| 
A:-4-4-4-4-4-4-4-4--2-2-2-2-2-2-2-2--| 
E:-----------------------------------| 
 
 
Chorus: After stars is just part of Chorus 1 
G:----------------------------------------------------------------------| 
D:----------------------------------------------------------------------| 
A:---4-4--6-6--222----4-4--6-6--222---4-4--6-6--222---4---666-666-6-6---| 
E:-2---------------2----------------2----------------2------------------| 
 
G:-----------------------| 
D:-----------------------| 
A:-4-4-4-4-4-4-4-4--2----| 
E:-----------------------| 
 
 
Bridge: G:-------------------------------------| 
D:-----8--8-----6--6------4--4-----6--6--------| 
A:-666--6---444--4----222--2----444----4-------| 
E:---------------------------------------------| 
Listen for the swing 
 
 
Last Chorus: 
G:--------------------------------------------------------------| 
D:--------------------------------------------------------------| 
A:-----4-4--6-6--2-----4-4--6-6--2----4-4--6-6-6-6-6-6-6-6------| 
E:--2--------------2----------------2---------------------------| 
 
 
G:-----------------------| 
D:-----------------------| 
A:-4-4-4-4-4-4-4-4--2~---| 
E:-----------------------| 
 
 
All the small things 
 
Riff 1: 
G|---------------------------------------------------------------------| 
D|---------------------------------------------------------------------|x2 
A|-3-3-3-3-3-3-3-3-3-3-3-3-3-3-3-3-------------------------------------| 
E|---------------------------------3-3-3-3-3-3-3-3-5-5-5-5-5-5-5-5-1-1-| 
 
Riff 2: 
G|-----------------------------------------------------------------| 
D|-----------------------------------------------------------------|x4 
A|-3-3-3-3-3-3-3-3-------------------------------------------------| 
E|-----------------3-3-3-3-3-3-3-3-1-1-1-1-1-1-1-1-3-3-3-3-3-3-3-3-| 
 
Riff 3: 
G|---------------------------------| 
D|---------------------------------| x1 
A|-3--3-3--3--3-3------------------| 
E|-----------------3--3-3--1--1-1--| 
 
Riff 4: 
G|-----------------------------------------------------------------| 
D|-----------------------------------------------------------------| 
A|-3-3-3-3-3-3-3-3-3-3-3-3-3-3-3-3---------------------------------| 
E|---------------------------------3-3-3-3-3-3-3-3-1-1-1-1-1-1-1-1-| 
 
Riff 1: 
G|---------------------------------------------------------------------| 
D|---------------------------------------------------------------------|x2 
A|-3-3-3-3-3-3-3-3-3-3-3-3-3-3-3-3-------------------------------------| 
E|---------------------------------3-3-3-3-3-3-3-3-5-5-5-5-5-5-5-5-1-1-| 
 
Riff 2: 
G|-----------------------------------------------------------------| 
D|-----------------------------------------------------------------|x2 
A|-3-3-3-3-3-3-3-3-------------------------------------------------| 
E|-----------------3-3-3-3-3-3-3-3-1-1-1-1-1-1-1-1-3-3-3-3-3-3-3-3-| 
 
Riff 3: 
G|---------------------------------| 
D|---------------------------------| x1 
A|-3--3-3--3--3-3------------------| 
E|-----------------3--3-3--1--1-1--| 
 
Riff 4: 
G|-------------------------------------------------------------------| 
D|-------------------------------------------------------------------|x4 
A|-3-3-3-3-3-3-3-3-3-3-3-3-3-3-3-3-----------------------------------| 
E|---------------------------------3-3-3-3-3-3-3-3-1-1-1-1-1-1-1-1---| 
 
Riff 5: 
G|-----------------------------------------| 
D|-----------------------------------------| 
A|-3---------------------------------------| 
E|-------------------1----------3----------| 
 
Riff 4: 
G|-------------------------------------------------------------------| 
D|-------------------------------------------------------------------|x4 
A|-3-3-3-3-3-3-3-3-3-3-3-3-3-3-3-3-----------------------------------| 
E|---------------------------------3-3-3-3-3-3-3-3-1-1-1-1-1-1-1-1---| 
 
Riff 6: 
G|-------------------------------------------------| 
D|-------------------------------------------------| 
A|-3-3-3-3-3-3-3-3-3-3-3-3-3-3-3-3-----------------| 
E|---------------------------------3-3-3-3-3-3-3-3-| 
 
G|-----------------------------------| 
D|-----------------------------------| 
A|----------------------------3------| 
E|-1-1-1--1-1-1--1-1-1--1-1-1--------| 
 
Adams song 
 
 
*Verse* 
G: |-------------------------------------| 
D: |-------------------------------------| x4 
A: |-33333333----------00000000----------| 
E: |----------11111111----------11111111-| 
 
G: |-------------------------------------| 
D: |----------0-0-0-0--------------------| x1 
A: |-3-3-3-3-----------0-0-0-0-----------| 
E: |----------------------------1-1-1-1--| 
 
   *Chorus* 
G: |-------------------------------------| 
D: |----------00000000-------------------| x1 
A: |-33333333----------00000000----------| 
E: |---------------------------11111111--| 
 
G: |-------------------------------------| 
D: |----------00000000----------00000000-| x1 
A: |-33333333----------33333333----------| 
E: |-------------------------------------| 
 
G: |-------------------------------------| 
D: |-00000000-22222222-------------------| x2 
A: |-------------------22222222-00000000-| 
E: |-------------------------------------| 
 
G: |-------------------------------------| 
D: |-------------------------------------| x1 
A: |-3-3-3-3----------0-0-0-0------------| 
E: |----------1-1-1-1---------1-1-1-1----| 
 
   *Verse* 
G: |-------------------------------------| 
D: |-------------------------------------| x4 
A: |-33333333----------00000000----------| 
E: |----------11111111----------11111111-| 
 
   *Pre-Chorus* 
G: |-------------------------------------| 
D: |----------00000000-------------------| x1 
A: |-33333333----------00000000----------| 
E: |----------------------------11111111-| 
   *Chorus* 
 
G: |-------------------------------------| 
D: |----------00000000-------------------| x1 
A: |-33333333----------00000000----------| 
E: |---------------------------11111111--| 
 
G: |-------------------------------------| 
D: |----------00000000----------00000000-| x1 
A: |-33333333----------33333333----------| 
E: |-------------------------------------| 
 
G: |-------------------------------------| 
D: |-00000000-22222222-------------------| x2 
A: |-------------------22222222-00000000-| 
E: |-------------------------------------| 
 
   *Bridge* 
G: |------------5--5-5---7--7-7---5--5-5-| 
D: |---5--5-5-33-33-3--55-55-5--33-33-3--| x1 
A: |-33-33-3-----------------------------| 
E: |-------------------------------------| 
 
G: |------------5--5-5---7--7-7---9---5--| 
D: |---5--5-5-33-33-3--55-55-5--77--33---| x1 
A: |-33-33-3-----------------------------| 
E: |-------------------------------------| 
 
G: |------------5--5-5---7--7-7---5--5-5-| 
D: |---5--5-5-33-33-3--55-55-5--33-33-3--| x1 
A: |-33-33-3-----------------------------| 
E: |-------------------------------------| 
 
G: |------------5--5-5---7--7-7---9---5--| 
D: |---5--5-5-33-33-3--55-55-5--77--33---| x1 
A: |-33-33-3-----------------------------| 
E: |-------------------------------------| 
 
G: |-------------------------------------| 
D: |----------00000000-------------------| x1 
A: |-33333333----------00000000----------| 
E: |---------------------------11111111--| 
 
G: |-------------------------------------| 
D: |----------00000000----------00000000-| x1 
A: |-33333333----------33333333----------| 
E: |-------------------------------------| 
 
G: |-------------------------------------| 
D: |-00000000-22222222-------------------| x2 
A: |-------------------22222222-00000000-| 
E: |-------------------------------------| 
 
G: |---------------------| 
D: |---------------------| 
A: |-3~~~~~~~~~~~~~~~~~~-| 
E: |---------------------| 
 
Man over bored 
 
 
Intro (x2) 
G|---7--5-4----7--5-4-----7-5--4-5--4-5--4---7---| 
D|-55-5--5-5-55-5--5-55--5-5--5-5--5-5--5-5--5---| 
A|-----------------------------------------------| 
E|-----------------------------------------------| 
 
Verse (x2) 
G|-----------------------------------------------| 
D|-----------------------------------------------| 
A|---------------------------------3333-3355-----| 
E|-3333 3333--3333-3355--0000-0000---------------| 
 
Tag (x2) 
G|-----------------------------------------------| 
D|-5555-5555-------------------------------------| 
A|------------5555-5555-7777-7777-3333-3333------| 
E|-----------------------------------------------| 
 
 
G|-----------------------------------------------| 
D|-5555-5555-7777-7777-10-10-10-10-10-10-10-10---| 
A|-----------------------------------------------| 
E|-----------------------------------------------| 
 
G|-----------------------------------------------| 
D|-5555-5555-7777-7777---------------------------| 
A|----------------------3333-3333----------------| 
E|-----------------------------------------------| 
 
Outro 
G|---7--5-4----7--5-4-----7-5--4-5--4-5--4-5-----| 
D|-55-5--5-5-55-5--5-55--5-5--5-5--5-5--5-5--5-55| 
A|-----------------------------------------------| 
E|-----------------------------------------------| 
 
G|-7--| 
D|-5--| 
A|----| 
E|----| 
 
The rock show 
 
INTRO 
G-----------------------------------------| 
D-----------------------------------------| 
A------------------55555555-77777777------| (x2) 
E-5555555555555555------------------------| 
 
G------------------| 
D------------------| 
A------------------| 
E-5555555555555555-| 
 
VERSE 
G-----------------------------------------| 
D-----------------------------------------| 
A------------------55555555-77777777------| (x2) 
E-5555555555555555------------------------| 
 
Play VERSE riff (x2) 
 
VERSE 
 
Chorus 
G-----------------| 
D-----------------| 
A-------------5---| (x3) 
E--5-5-5---2------| 
 
G-----------------------------------------| 
D-----------------------------------------| 
A--77777777-55555555-77777777-55555555----| 
E-----------------------------------------| 
 
G-------------------| 
D-------------------| 
A--77777777--5---4--| 
E-------------------| 
 
Play VERSE riff (x2) 
 
VERSE 
 
Chorus 
 
BREAK 
G--------------------------------------------------| 
D--------------------------------------------------| 
A-9999999--7--555555--4--------------4-5-77777777--| (x2) 
E-----------------------7--555555--7---------------| 
 
Chorus 
 
Play VERSE riff until END and fade out 
 
Firstdate 
 
Intro: X2 
G------------------------------------------------------------------: 
D-----------------------------------3-3-3-3-3-3-3-3-5-5-5-5-5-5-5-5: 
A-3-3-3-3-3-3-3-3-5-5-5-5-5-5-5-5-5--------------------------------: 
E------------------------------------------------------------------: 
 
Verse: X4 
G------------------------------------------------------------------: 
D------------------------------------------------------------------: 
A-3-3-3-3-3-3-3-3-3-3-3-3-3-3-3-3-3--------------------------------: 
E-----------------------------------3-3-3-3-3-3-3-3-1-1-1-1-1-1-1-1: 
 
Chorus: 
G--------------------------------------------------: 
D--------------------------------------------------: 
A-3-3-3-3--2-2-2-2--0-0-0-0-0-0-0-0----------------: X2 
E-----------------------------------1-1-1-1-3-3-3-3: 
 
G------------------------------------------------------------------: 
D------------------------------------------------------------------: 
A-3-3-3-3-3-3-3-3-2-2-2-2-2-2-2-2-0-0-0-0-0-0-0-0------------------: X2 
E-------------------------------------------------1-1-1-1-3-3-3-3--: 
 
Intro: X2 
G------------------------------------------------------------------: 
D-----------------------------------3-3-3-3-3-3-3-3-5-5-5-5-5-5-5-5: 
A-3-3-3-3-3-3-3-3-5-5-5-5-5-5-5-5-5--------------------------------: 
E------------------------------------------------------------------: 
 
G------------------------------------------------------------------: 
D------------------------------------------------------------------: 
A-3-3-3-3-3-3-3-3-3-3-3-3-3-3-3-3-3--------------------------------: 
E-----------------------------------3-3-3-3-3-3-3-3-1-1-1-1-1-1-1-1: 
 
G--------------------------------------------------: 
D--------------------------------------------------: 
A-3-3-3-3--2-2-2-2--0-0-0-0-0-0-0-0----------------: X2 
E-----------------------------------1-1-1-1-3-3-3-3: 
 
G------------------------------------------------------------------: 
D------------------------------------------------------------------: 
A-3-3-3-3-3-3-3-3-2-2-2-2-2-2-2-2-0-0-0-0-0-0-0-0------------------: X2 
E-------------------------------------------------1-1-1-1-3-3-3-3--: 
 
 
Bridge: X6 
G-----------------------------------------------------------: 
D----------------2-2-2-2-2-2-2--3-3-3-3-3-3-3--5-5-5-5-5-5-5: 
A-3-3-3-3-3-3-3---------------------------------------------: 
E-----------------------------------------------------------: 
 
Chorus: 
G--------------------------------------------------: 
D--------------------------------------------------: 
A-3-3-3-3--2-2-2-2--0-0-0-0-0-0-0-0----------------: X2 
E-----------------------------------1-1-1-1-3-3-3-3: 
 
G------------------------------------------------------------------: 
D------------------------------------------------------------------: 
A-3-3-3-3-3-3-3-3-2-2-2-2-2-2-2-2-0-0-0-0-0-0-0-0------------------: X4 
E-------------------------------------------------1-1-1-1-3-3-3-3--: 
 
Stay together for the kids 
 
g-----------------------------------| 
d-----------------------------------| 
a-----------------------------------| x4 
e-3333333333333333222222222222222202 
 
 
second verse 
g---7--7--7--7--7--7--7--7--7--7--7--7--7--7--6--6-| 
d-00-00-00-00-99-99-99-99-77-77-77-77-77-77-77-77--| 
a--------------------------------------------------| 
e--------------------------------------------------| 
 
Chorus 
g-----------------------------------| 
d-----------------------------------| 
a-----------------------------------| x4 
e-3333333333333333222222222222222202 
 
bridge 
g---7-9-7---7-9-7---7--7-7---7-9-7--| 
d-----------------------------------| x4 
a-----------------------------------| 
e-----------------------------------| 
 
verse 
g-----------------------------------| 
d-----------------------------------| 
a-----------------------------------| 
e-3333333333333333222222222222222202 
play and fade out. 
 
 
Feeling this 
 
verse 
G|-----------| 
D|-----------| 
A|77777777-11|x8   they are elevens not ones 
E|-----------| 
 
Chorus 
G|-----------------------------------| 
D|-----------------------------------| 
A|---------22222222-44444444-00000000|x2 
E|00000000---------------------------| 
 
intro 
 
verse 
G|-----------| 
D|-----------| 
A|77777777-11|x6 
E|-----------| 
 
Chorus 
G|-----------------------------------| 
D|-----------------------------------| 
A|---------22222222-44444444-00000000|x2 
E|00000000---------------------------| 
 
 
bridge/outro 
G|-----------------------------------| 
D|-----------------------------------| 
A|77777777---------------------------| 
E|---------77777777-99999999-55555555| 
 
 
I miss you 
 
Intro/Verse 1 
|----------------------------| 
|----------------------------| 
|----------------------------|x6 
|-2/7-7--2/6-6--2/4-4--2/6-6-| 
 
Break 
|----------------------------------------| 
|----------------------------------------| 
|-2222-4444-6666-9999-7777-6666-22222222-|x2 
|----------------------------------------| 
 
Verse 2 
|----------------------------| 
|----------------------------| 
|----------------------------|x4 
|-2/7-7--2/6-6--2/4-4--2/6-6-| 
 
Chorus 
|----------------------------------------|  |----| 
|----------------------------------------|  |----| 
|-2222-4444-6666-9999-7777-6666-22222222-|x2|-2~-|x1 
|----------------------------------------|  |----| 
 
Verse 3 
|----------------------------| 
|----------------------------| 
|----------------------------|x2 
|-2/4-4--2/6-6--2/7-7--2/6-6-| 
 
Chorus 
|----------------------------------------| 
|----------------------------------------| 
|-2222-4444-6666-9999-7777-6666-22222222-|x8 
|----------------------------------------| 
 
 
Down 
 
intro/verse 
G|--------------------------------------------| 
D|--------------------------------------------| 
A|-2222-222--------1111-----------------------| 
E|-----------2/444----------------------------| 
 
 
G|--------------------------------------------| 
D|--------------------------------------------| 
A|--------------------------------------------| 
E|-0~-----------------------------------------| 
 
Chorus 
G|----------------------------------------------------------| 
D|----------------------------------------------------------| 
A|----------11111111-22222222----------------------11111111-| 
E|-44444444-------------------22-22-22-22-44444444----------| 
 
After 
G|-----------------------------------------|----| 
D|-------------------------------------x2--|----| 
A|-22222222--------------------------------|-2~-| 
E|----------00000000-44444444-00000000-----|----| 
 
Verse 
G|--------------------------------------------| 
D|------------------------------------x2------| 
A|-2~------1~/2~------1~/---------------------| 
E|----2/4~-------2/4~-------------------------| 
 
intro/verse 
G|--------------------------------------------| 
D|--------------------------------------------| 
A|-2222-222--------1111-----------------------| 
E|-----------2/444----------------------------| 
 
G|--------------------------------------------| 
D|--------------------------------------------| 
A|--------------------------------------------| 
E|-0~-----------------------------------------| 
 
Chorus 
G|----------------------------------------------------------| 
D|----------------------------------------------------------| 
A|----------11111111-22222222----------------------11111111-| 
E|-44444444-------------------22-22-22-22-44444444----------| 
 
after 
G|-----------------------------------------| 
D|-------------------------------------x2--| 
A|-22222222--------------------------------| 
E|----------00000000-44444444-00000000-----| 
 
Outro 
G|--------------------------------------------| 
D|--------------------------------------------| 
A|-2~--------2~-----------2~-----------2~-----| 
E|--------------------------------------------| 
 
 
Always 
 
Intro 
G|-------------------------------------| 
D|-------------------------------------| X2 
A|22222222-44444444-66666666-22222222--| 
E|-------------------------------------| 
                            __________________    _______________ 
Verse X4                    |1st,2nd&3rd      (Repeat) 4th ending 
G|--------------------------|--------------------||--------------| 
D|--------------------------|--------------------||--------------| 
A|22222222-11111111-22222222|22222222------------||--------------| 
E|--------------------------|--------------------||22222222------| 
 
Pre-Chorus 
G|-------------| 
D|-------------| X2 
A|2~-4~--------| 
E|------4~-0~--| 
 
Chorus 
G|-------------------------------------| 
D|-------------------------------------| X2 
A|22222222-44444444--------------------| 
E|------------------44444444-00000000--| 
 
Intro X2 
 
Verse X4 
 
Pre-Chorus X4 
 
Chorus X4 
 
After 2nd Chorus 
G|----------------------------------------------------------------------| 
D|----------------------------------------------------------------------| 
A|22222222-11111111-2222222222222222-22222222-11111111-2222222222222222-| 
E|----------------------------------------------------------------------| 
 
Chorus X2 
 
Not now 
 
Intro 
|-----------------------------------| 
|-----------------------------------| 
|-222-555-00000000------------------|x4 
|-----------------3333-5-3-22222222-| 
 
Verse 
|--------------| 
|--------------| 
|-5~~~~~~~~~~~-|x4 
|--------------| 
 
Pre Chorus 
|----------------------------------------------------------------| 
|----------------------------------------------------------------| 
|-555555555555-7777777777777777----------------------------------|x2 
|------------------------------2222222222222222-3333333333333333-| 
 
Chorus 
|-----------------------------------------------| 
|-----------------------------------------------| 
|-/55555555554-00000000054/22222222254--------5-|x1 
|-------------------------------------33333333--| 
 
Pre Verse 
|-----------------------------------| 
|-----------------------------------| 
|-222-555-00000000------------------|x2 
|-----------------3333-5-3-22222222-| 
 
Verse 
|--------------| 
|--------------| 
|-5~~~~~~~~~~~-|x4 
|--------------| 
 
Chorus 
|---------------------------------------------------------| 
|---------------------------------------------5555-5h7p5--| 
|-/55555555554-00000000054/22222222254--------------------|x1 
|-------------------------------------33333333------------| 
 
|--------------------------------------------------------| 
|--------------------------------------77777777-55555555-| 
|-/55555555554-00000000054/22222222254-------------------|x1 
|--------------------------------------------------------| 
 
Bridge 
|----|   |-----------------------------------| 
|----|   |-----------------------------------| 
|-5~-|x1 |-222-555-00000000------------------|x4 
|----|   |-----------------3333-5-3-22222222-| 
 
Chorus 
|------------------------------------------------------------------| 
|------------------------------------------------------5555-5h7p5--| 
|-/55555555555554-00000000000054/22222222222254--------------------|x1 
|----------------------------------------------33333333------------| 
 
|-----------------------------------------------------------------| 
|-----------------------------------------------77777777-55555555-| 
|-/55555555555554-00000000000054/22222222222254-------------------|x1 
|-----------------------------------------------------------------| 
 
Outro 
|-----------------------------------|  |----------| 
|-----------------------------------|  |----------| 
|-222-555-00000000------------------|x4|-2~-5~-0~-|x1 
|-----------------3333-5-3-22222222-|  |----------| 
 
Another girl another planet 
 
intro 
G|---------------------------------------------------------------------| 
D|---------------------------------------------------------------------| 
A|---------------------------5555555577777-5-33333333------------------| 
E|---3(hold) --------33333333------------------------------------------| 
 
verse 
G|---------------------------------------------------------------------| 
D|---------------------------------------------------------------------| 
A|----------5555555577777-5-33333333-----------------------------------| 
E|-33333333------------------------------------------------------------| 
 
Chorus 
G|----------------------------------------------------------------------| 
D|----------------------------------------------------------------------| 
A|------------5555555577773333-7-5--------------------------------------| 
E|---33333333-----------------------------------------------------------| 
 
G|----------------------------------------------------------------------| 
D|------------9(hold)--7(hold)------------------------------------------| 
A|------------7(hold)--5(hold)------------------------------------------| 
E|----------------------------------------------------------------------| 
 
interlude 
G|---------------------------------------------------------------------| 
D|---------------------------------------------------------------------| 
A|------------5555555577777-5-33333333---------------------------------| 
E|---33333333----------------------------------------------------------| 
 
(2nd)verse 
G|---------------------------------------------------------------------| 
D|-----------7777777799999-7-------------------------------------------| 
A|-----------5555555577777-5-33333333----------------------------------| 
E|--33333333-----------------------------------------------------------| 
 
outro 
G|---------------------------------------------------------------------| 
D|---------------------------------------------------------------------| 
A|----------555555577777-5-33333333------------------------------------| 
E|--33333333------------------------3(end)-----------------------------| 
 
 
intro x 6 
verse x 2 
Chorus x 2 
verse x 2 
Chorus x 2 
mark singing 
interlude x 4 
2nd verse x 2 
Chorus x 4 
verse x 1 
outro x 1 
 
 
I wont be home for chrismas 
 
Intro 
G:-------------------------------------------------------| 
D:-------------------------------------------------------| 
A:---------------------------555555555555-333333333333---| 
E:-333333333333-000000000000-----------------------------| 
 
Verse 
G:---------------------------------------------------------------------| 
D:---------------------------------------------------------------------| 
A:-----------------------------------3333333333333333-5555555555555555-| 
E:-3333333333333333-0000000000000000-----------------------------------| 
 
Chorus 
G:---------------------------------------| 
D:---------------------------------------| 
A:----------55555555----------33333333---| 
E:-33333333----------00000000------------| 
 
Ending 
G:-----------------------| 
D:-----------------------| 
A:------5555------3333---| 
E:-3333------0000--------| 
 
G:----7----7--7----7------------------------| 
D:---5--55---5--55------9--9---5----5-------| 
A:---------------------7-77--3---33---------| 
E:------------------------------------------| 
 

	  

Search Paypal
auto scroll beats size up size down change color hide chords drawings
tab show chords e-chords YouTube Clip e-chords hide all tabs e-chords go to top tab