Black Rebel Motorcycle Club

Circus Bazooko

Black Rebel Motorcycle Club

bass

by  TERR_SCHMITZ

save to print version add songbook text version e-mail correct tuner
chordsukulelecavacokeyboardtabbassdrumsharmonicaflute Guitar Pro
close

there isn't a video lesson for this song

chords

Circus Bazooko

	  		
Intro 0:00 
G|----------------------------------------------------|  
D|---------------------------------5------5-----5-----|  
A|----------------------------3-3----3-3----3-3---3---| 
E|-3-3--3-3-3--3-3-3--3-6-3~------------------------1-| x2 

verse 1 0:24 
G|----------------------------------------------------| 
D|---------------------------------5------5-----5-----| 
A|----------------------------3-3----3-3----3-3---3---| 
E|-3-3--3-3-3--3-3-3--3-3-3-------------------------1-| 

G|----------------------------------------------------| 
D|---------------------------------5------5------5----| 
A|------------------------1----3-3----3-3----3-3---3--| 
E|-3-3--1h3-3-3--3-3-3--3---3~-----------------------1| 

Pre-Chorus 0:48 
G|----------------------------------------------------------| 
D|----------------------------------5------5------5---------| 
A|-----------------------------3-3----3-3----3-3----3-3--1--| 
E|-3-3--1h3-3-3--1h3-3-3--1h3~------------------------------| 

G|----------------------------------------------------------| 
D|------------------------5------5------5-------------------| 
A|---------------------3----3-3----3-3----3-3--3------------| 
E|-3--10/3--10/3--10/3---------------------------1----------| 

verse 2 1:12 
G|---------------------------------------------------| 
D|--------------------------------5------5-----5-----| 
A|---------------------------3-3----3-3----3-3---3---| 
E|-3-3--3-3-3--3-3-3--3~-6-3-----------------------1-| 

G|--------------------------------------------------------| 
D|-------------------------------------5------5-----5-----| 
A|-------------------------1-1-3~-3-3----3-3----3-3---3---| 
E|-3-3--1h3-3-3--3-3-3--1h3-3---------------------------1-| 

Pre-Chorus 2 1:35 
G|----------------------------------------------------------| 
D|-----------------------------------5------5------5--------| 
A|---------------------------1-1-3~----3-3----3-3----3-3--1-| 
E|-3-3--1h3-3-3--1h3-3-3--1h3-3-----------------------------| 

G|------------------------------------------------------------| 
D|--------------------------------5------5------5-------------| 
A|------------------------1-1-3~----3-3----3-3----3-3--3------| 
E|-3--10/3--10/3--10/3-1h3-3-----------------------------1----| 

Chorus 1 1:59 
G|---------------------------------| 
D|-5~--5/12~--12/10~--10/17~--17/5-| 
A|---------------------------------| 
E|---------------------------------| x3 

G|--------------------------------------------------------| 
D|---5-12/5---5----12/5----------17/-----5-----17/--5-----| 
A|---------------------------3-3-----3-3----3-3-------3---|  
E|-3--------3---3-3-----3-3-----------------------------1-| x2 

Solo 3:00 
G|---------------------------------------------------| 
D|--------------------------------5------5-----5-----| 
A|---------------------------3-3----3-3----3-3---3---| 
E|-3-3--3-3-3--3-3-3--3-3-3------------------------1-|  

verse 3 3:12 
G|----------------------------------------------------| 
D|---------------------------------5------5-----5-----| 
A|----------------------1----3-3-----3-3----3-3---3---| 
E|-3-3--3-3-3--3-3-3--3---3~------------------------1-| 

G|----------------------------------------------------| 
D|---------------------------------5------5-----5-----| 
A|----------------------------3-3----3-3----3-3---3-3-| 
E|-3-3--3-3-3--3-3-3--3-3-3---------------------------| 

Chorus 2 3:35 
G|---------------------------------| 
D|-5~--5/12~--12/10~--10/17~--17/5-| 
A|---------------------------------| 
E|---------------------------------| x2 

Solo 2 4:00 
G|-----------------------------------------------------------| 
D|------------------------------x-17/----x-5----x-17/----x-5-| 
A|----1-------------1-----1--3-3-------3-3---3-3------3-3----| 
E|-3-3-3-1-3-1-3-3-3-3-1h3-3---------------------------------|  

G|-----------------------------------------------------------| 
D|-------------------------------17/----x------17/---x-5-----| 
A|----1-------------1-----1--3-3----3-3--1-3-3----3-3--------| 
E|-3-3-3-1-3-1-3-3-3-3-1-3-3---------------------------------|  x2 

G|-----------------------------------------------------------| 
D|------------------------------x-17/----x-5----x-17/----x-5-| 
A|----1-------------1-----1--3-3-------3-3---3-3------3-3----| 
E|-3-3-3-1-3-1-3-3-3-3-1h3-3---------------------------------|  

G|----| 
D|----| 
A|----| 
E|-3~-| 

Outro 5:10 
(Lightly) 

G|-------------------------------------------------------3h5---| 
D|--------------15-17-15-17-------15-17/20-20/--5---5---5------| 
A|--3-8-10/15-17------------15-17-------------3--33--33-----3/-| 
E|-------------------------------------------------------------|  


************************************ 
  
 h   - hammer-on 
 b   - bend 
 /   - slide  
 x   - muted note 

************************************ 
		  

See also:

bass Red Hot Chili Peppers - Apache Rose Peacock bass Good Charlotte - Footlose bass Audioslave - Gasoline bass Red Hot Chili Peppers - Can't Stop bass Red Hot Chili Peppers - Don't Forget Me bass Red Hot Chili Peppers - America Ghost Dance
e-chords

Other versions:

bass Black Rebel Motorcycle Club - Circus Bazooko
auto scroll beats size up size down change color hide chords drawings
tab show chords e-chords YouTube Clip e-chords hide all tabs e-chords go to top tab

share