Billy Idol

home > Billy Idol

Rebel Yell Bass Tab

Billy Idol

Difficulty: ExpertExpert

tuner correct add songbook print version text version save to e-mail
chordsukulelecavacokeyboardtabbassdrumsharmonicsflute Guitar Pro
chords

Rebel Yell

Year: 1983 - Album: Billy Idol - Greatest Hits

  		

 
   

Intro
  |4x            |2x
G||--------2-4--||------------------|-----------------|-----------------|-
D||*----4------*||*-----------------|-----------------|-----------------|-
A||*-2---------*||*-----------------|-----------------|-----------------|-
E||-------------||--3-3-3-3-3-3-3-3-|-2-2-2-2-2-2-2-2-|-0-0-0-0-0-0-0-0-|-

               | 1st|2nd|
---------------||---|---|-------------------|----------------|-
--------------*||---|---|-------------------|----------------|-
--------------*||---|---|-5-5---------------|----------------|-
0-0-0-0-0-0-0--||-2-|-0-|-----5-5-7---------|----------------|-

Verse 1
-|-----------------|-----------------|-----------------|-----------------|-
-|-----------------|-----------------|-----------------|-----------------|-
-|-----------------|-----------------|-----------------|---------5-5-----|-
-|-7-7-7-7-7-7-7-7-|-7-7-7-7-7-7-7-7-|-7-7-7-7-7-7-7-7-|-7-7-7-7-----5-5-|-

-|-----------------|-----------------|-----------------|-----------------|-
-|-----------------|-----------------|-----------------|-----------------|-
-|-----------------|---------5-5-----|-----------------|---------5-5-----|-
-|-5-5-5-5-5-5-5-5-|-5-5-5-5-----5-5-|-3-3-3-3-3-3-3-3-|-0-0-0-0-----5-5-|-

-|-----------------|-----------------|-----------------|-----------------|-
-|-----------------|-----------------|-----------------|-----------------|-
-|-----------------|-----------------|-----------------|---------5-5-----|-
-|-7-7-7-7-7-7-7-7-|-7-7-7-7-7-7-7-7-|-7-7-7-7-7-7-7-7-|-7-7-7-7-----5-5-|-

-|-----------------|-----------------|-----------------|-----------------|
-|-----------------|-----------------|-----------------|-----------------|
-|-----------------|---------5-5-----|-----------------|-7-7-7-7-5-5-----|
-|-5-5-5-5-5-5-5-5-|-5-5-5-5-----5-5-|-3-3-3-3-3-3-3-3-|-------------5-5-|

Chorus 1
-|-----------------|-----------------|-----------------|-----------------|-
-|-----------------|-----------------|-----------------|-----------------|-
-|-----------------|-----------------|-----------------|---------5-5-----|-
-|-7-7-7-7-7-7-7-7-|-7-7-7-7-7-7-7-7-|-7-7-7-7-7-7-7-7-|-7-7-7-7-----5-5-|-

-|-----------------|-----------------|-----------------|-----------------|-
-|-----------------|-----------------|-----------------|-----------------|-
-|-----------------|---------5-5-----|-----------------|-7-7-7-7-5-5-----|-
-|-5-5-5-5-5-5-5-5-|-5-5-5-5-----5-5-|-3-3-3-3-3-3-3-3-|-------------5-5-|-

-|-----------------|-----------------|-----------------|-----------------|-
-|-----------------|-----------------|-----------------|-----------------|-
-|-----------------|-----------------|-----------------|---------5-5-----|-
-|-7-7-7-7-7-7-7-7-|-7-7-7-7-7-7-7-7-|-7-7-7-7-7-7-7-7-|-7-7-7-7-----5-5-|-

-|-----------------|-----------------|-----------------|-----------------|-
-|-----------------|-----------------|-----------------|-----------------|-
-|-----------------|---------5-5-----|-----------------|-7-7-7-7-5-5-----|-
-|-5-5-5-5-5-5-5-5-|-5-5-5-5-----5-5-|-3-3-3-3-3-3-3-3-|-------------5-5-|-

-|-----------------|-----------------|-
-|-----------------|-----------------|-
-|-----------------|-----------------|-
-|-7---------------|-----------------|-

Verse 2 Same as Verse 1

Chorus 2
-|-----------------|-----------------|-----------------|-----------------|-
-|-----------------|-----------------|-----------------|-----------------|-
-|-----------------|-----------------|-----------------|---------5-5-----|-
-|-7-7-7-7-7-7-7-7-|-7-7-7-7-7-7-7-7-|-7-7-7-7-7-7-7-7-|-7-7-7-7-----5-5-|-

-|-----------------|-----------------|-----------------|-----------------|-
-|-----------------|-----------------|-----------------|-----------------|-
-|-----------------|---------5-5-----|-----------------|-7-7-7-7-5-5-----|-
-|-5-5-5-5-5-5-5-5-|-5-5-5-5-----5-5-|-3-3-3-3-3-3-3-3-|-------------5-5-|-

-|-----------------|-----------------|-----------------|-----------------|-
-|-----------------|-----------------|-----------------|-----------------|-
-|-----------------|-----------------|-----------------|---------5-5-----|-
-|-7-7-7-7-7-7-7-7-|-7-7-7-7-7-7-7-7-|-7-7-7-7-7-7-7-7-|-7-7-7-7-----5-5-|-

-|-----------------|-----------------|-----------------|-----------------|-
-|-----------------|-----------------|-----------------|-----------------|-
-|-----------------|---------5-5-----|-----------------|-0-0-------------|-
-|-5-5-5-5-5-5-5-5-|-5-5-5-5-----5-5-|-3-3-3-3-3-3-3-3-|-----------------|-

Bridge
  |2x                                                                     |
-||------------------|-----------------|-----------------|----------------||
-||*-----------------|-----------------|-----------------|---------------*||-
-||*-----------------|-----------------|-----------------|---------------*||-
-||--3-3-3-3-3-3-3-3-|-2-2-2-2-2-2-2-2-|-0-0-0-0-0-0-0-0-|-0-0-0-0-0-0-0--||-

 |1st|2nd||4x
-|---|---||--------2-4--||-
-|---|---||*----4------*||-
-|---|---||*-2---------*||-
-|-2-|-0-||-------------||-

Guitar Solo Same as Chorus 1 +
-|----------------|----------------|-
-|----------------|----------------|-
-|----------------|----------------|-
-|----------------|----------------|-

Verse 3
 |4x
||--------------------------|-------------------------|-------------------------
||*-------------------------|-------------------------|-------------------------
||*-14-14-14-14-14-14-14-14-|-14-14-14-14-14-14-14-14-|-14-14-14-14-14-14-14-14-
||--------------------------|-------------------------|-------------------------

-|-------------------------|-------------------------|-------------------------
-|-------------12-12-------|-------------------------|-------------12-12-------
-|-14-14-14-14-------12-12-|-12-12-12-12-12-12-12-12-|-12-12-12-12-------12-12-
-|-------------------------|-------------------------|-------------------------

                |   1st, 2nd & 3rd time    | 4th time          |
-|--------------|------------|-------------|---------|---------|-
-|-------------*|------------|-12-12-------|---------|---------|-
-|-10-10-10-10-*|------------|-------12-12-|-7-7-7-7-|-5-5-----|-
-|--------------|12-12-12-12-|-------------|---------|-----5-5-|-

Chorus 3 Same as Chorus 1 4x

Outro
  |4x
G||--------2-4/--||
D||*----4-------*||
A||*-2----------*||
E||--------------||

...another one tabbed by ridopoco...

	  

Search Paypal
auto scroll beats size up size down change color hide chords drawings
tab show chords e-chords YouTube Clip e-chords hide all tabs e-chords go to top tab