Dire Straits

home > Dire Straits

Sultans of Swing Bass Tab

Dire Straits

Difficulty: ExpertExpert

by Escolhido

tuner correct add songbook print version text version save to e-mail
chordsukulelecavacokeyboardtabbassdrumsharmonicsflute Guitar Pro
chords

Sultans of Swing

Year: 1984 - Album: Money for Nothing

	  Afinação : E A D G 	Tempo: 4/4 
 
 |       |       |       |        |       |       |       |         
|--------------------------------|--------------------------------| 
|--------------------------------|--------------------------------| 
|5-----------5---5---------------|5-----------5---3-------3-------| 
|--------------------------------|--------------------5-----------| 
 
 |       |       |       |        |       |       |       |         
|--------------------------------|--------------------------------| 
|--------------------------------|--------------------------------| 
|5-----------5---5---------------|5---------------5-------3-------| 
|--------------------------------|----------------------------5---| 
 
 |       |       |       |        |       |       |       |         
|--------------------------------|--------------------------------| 
|--------------------------------|--------------------------------| 
|5-----------5---5---------------|5-----------5---3-------3-------| 
|--------------------------------|--------------------5-----------| 
 
 |       |       |       |        |       |       You get a -       
|--------------------------------|--------------------------------| 
|--------------------------------|--------------------------------| 
|5-----------5---5---------------|5-----------5---3-------3-------| 
|--------------------------------|--------------------5-----------| 
 
 shiver in the...|       |        |       |       |       |         
|--------------------------------|--------------------------------| 
|--------------------------------|--------------------------------| 
|5-----------5---5-----------5---|3-----------3---1-----------1---| 
|--------------------------------|--------------------------------| 
 
 |       |       |       |        |       |       |       |         
|--------------------------------|--------------------------------| 
|--------------------------------|--------------------------------| 
|0-----------0---0-----------0---|0---------------0-----------3---| 
|--------------------------------|--------------------------------| 
 
 |       |       |       |        |       |       |       |         
|--------------------------------|--------------------------------| 
|--------------------------------|--------------------------------| 
|5-----------5---5-----------5---|3-----------3---1---------------| 
|--------------------------------|--------------------------------| 
 
 |       |       |       |        |       |       |       |         
|--------------------------------|--------------------------------| 
|--------------------------------|--------------------------------| 
|0-----------0---0-----------0---|0-----------0---0-----------3---| 
|--------------------------------|--------------------------------| 
 
 |       |       |       |        |       |       |       |         
|--------------------------------|--------------------------------| 
|3-----------3-------------------|3-----------3-----------0-------| 
|------------------------3---5---|----------------------------0---| 
|--------------------------------|--------------------------------| 
 
 |       |       |       |        |       |       |       |         
|--------------------------------|--------------------------------| 
|--------------------------------|--------------------------------| 
|3-----------3-------------------|3-----------3-----------0-------| 
|------------------------3---5---|----------------------------1---| 
 
 |       |       |       |        |       |       |       |         
|--------------------------------|--------------------------------| 
|--------------------------------|--------------------------------| 
|1-----------1-------------------|1-----------1-------------------| 
|------------------------3---1---|------------------------3---1---| 
 
 |       |       |       |        |       |       |       |         
|--------------------------------|--------------------------------| 
|--------------------------------|--------------------------------| 
|5---------------5-------3-------|5-----------1-------1-----------| 
|----------------------------5---|----------------------------1---| 
 
 |       |       |       |        |       |       Well now|you -    
|--------------------------------|--------------------------------| 
|--------------------------------|--------------------------------| 
|3-----------3---3-----------3---|3-----------3---------------0---| 
|--------------------------------|--------------------1---3-------| 
 
 step inside..   |       |        |       |       |       |         
|--------------------------------|--------------------------------| 
|--------------------------------|--------------------------------| 
|5-----------5---5-----------5---|3-----------3---1-----------1---| 
|--------------------------------|--------------------------------| 
 
 |       |       |       |        |       |       |       |         
|--------------------------------|--------------------------------| 
|--------------------------------|--------------------------------| 
|0-----------0---0-----------0---|0-----------0---0-----------3---| 
|--------------------------------|--------------------------------| 
 
 |       |       |       |        |       |       |       |         
|--------------------------------|--------------------------------| 
|--------------------------------|--------------------------------| 
|5-----------5---5-----------5---|3-----------3---1-----------1---| 
|--------------------------------|--------------------------------| 
 
 |       |       |       |        |       |       |       |         
|--------------------------------|--------------------------------| 
|--------------------------------|--------------------------------| 
|0-----------0---0-----------0---|0-----------0---0-----------0---| 
|--------------------------------|--------------------------------| 
 
 |       |       |       |        |       |       |       |         
|--------------------------------|--------------------------------| 
|3-----------3-----------0-------|--------------------------------| 
|----------------------------3---|--------------------------------| 
|--------------------------------|1-----------1---------------3---| 
 
 |       |       |       |        |       |       |       |         
|--------------------------------|--------------------------------| 
|--------------------------------|--------------------------------| 
|3-----------3-----------1-------|3-----------3-------------------| 
|----------------------------1---|------------------------1---3---| 
 
 |       |       |       |        |       |       |       |         
|--------------------------------|--------------------------------| 
|--------------------------------|--------------------------------| 
|1-----------1-------------------|1-----------1-------1-------3---| 
|------------------------1---3---|------------------------3-------| 
 
 |       |       |       |        |       |       |       |         
|--------------------------------|--------------------------------| 
|--------------------------------|--------------------------------| 
|5-----------5---5-------3-------|5-----------1-------1-----------| 
|----------------------------5---|----------------------------3---| 
 
 |       |       Way on down     south    |       |       |         
|--------------------------------|--------------------------------| 
|--------------------------------|--------------------------------| 
|3-----------3---3---------------|3-----------1-------1-----------| 
|--------------------------------|----------------------------3---| 
 
 |       |       Way on down     south    |       |       |         
|--------------------------------|--------------------------------| 
|--------------------------------|--------------------------------| 
|3-----------3---3-----------3---|3-----------3---------------0---| 
|--------------------------------|--------------------1---3-------| 
 
 London town     |       |        |       |       |       |         
|--------------------------------|--------------------------------| 
|--------------------------------|--------------------------------| 
|5-----------5---5---3-------1---|------------1-----------1-------| 
|--------------------------------|----------------1---3-----------| 
 
 |       |       |       |        |       |       |       |         
|--------------------------------|----------------------------0---| 
|--------------------------------|--------------------------------| 
|3-----------3-----------1-------|3-----------3-----------1-------| 
|----------------------------3---|--------------------------------| 
 
 |       |       |       |        |       |       |       |         
|--------------------------------|--------------------------------| 
|--------------------------------|--------------------------------| 
|5-----------5---5---3-------1---|------------1-----------1-------| 
|--------------------------------|----------------1---3-------3---| 
 
 |       |       |       |        |       |       |       |         
|--------------------------------|--------------------------------| 
|--------------------------------|--------------------------------| 
|3-----------3-----------1-------|3-----------3-----------1---3---| 
|----------------------------3---|--------------------------------| 
 
 |       |       |       |        |       |       |       |         
|--------------------------------|--------------------------------| 
|--------------------------------|--------------------------------| 
|5-----------5---5-----------5---|3-----------3---1-----------0---| 
|--------------------------------|--------------------------------| 
 
 |       |       |       |         
|--------------------------------| 
|--------------------------------| 
|0-----------0---0-----------0---| 
|--------------------------------| 
 
 
DÁ UM POUCO DE TRABALHO DECORAR TUDO... 

	  

sultans-of-swing-acoustic Play

there is a video lesson for this song

view more
Full key step upFull key step up
Half key step upHalf key step up
Half key step downHalf key step down
Full key step downFull key step down
Search
auto scroll beats size up size down change color hide chords drawings
tab show chords e-chords YouTube Clip e-chords hide all tabs e-chords go to top tab