Barry White

home > Barry White

You?re the first, the last, my everything Bass Tab

Barry White

Difficulty: ExpertExpert

by europeu

tuner correct add songbook print version text version save to e-mail
chordsukulelecavacokeyboardtabbassdrumsharmonicsflute Guitar Pro
chords

You?re the first, the last, my everything

  		Normal tuning - E, A, D, G 
 
--------------------------------------------------------------- 
 
*INTRO* 
 
|---------------------------------|----------------------------------------| 
|---------------------------------|----------------------------------------| 
|-3--3---3---3---3--3--3---3---3--|-3--3--3---3---3---3--3--3-3------------| 
|---------------------------------|-----------------------------6-6-5-5-3--| 
               
*VERSE 1* 
                                        
|----------------------------------------|--------------------------------------| 
|-3--3--------------3---3----------------|--------------------------------------| 
|-------5---3---5----------5---3---3-(4)-|-5--5--3-------3---5---5---3---5---3--| 
|----------------------------------------|-----------5--------------------------| 
 
|--------------------------------------|-3--3--------------3---3------3---2--2-| 
|-3--3--------------3---3--------------|-------5---3---5----------5------------| 
|-------5---3---5----------5---3--3--5-|---------------------------------------| 
|--------------------------------------|---------------------------------------| 
 
|------------------------------5--5-----5-|-----------------------------------------| 
|-5--5--3-------3----------5---------5----|-7--7---------------------7--------------| 
|-----------5-------3---3-----------------|-------7-------7---5---5------5---4--(5)-| 
|-----------------------------------------|-----------5-----------------------------| 
 
|---------------------------------------|-3--3------3---------------------| 
|-5--5--3-------3---5---5--3-------3--5-|-------3-------3-----------------| 
|-----------5------------------5--------|-------------------1--3----------| 
|---------------------------------------|---------------------------------| 
 
*PRE-Chorus 1* 
                                        
|-------------------------------------|--------------------------------------| 
|-3--3--------------3---3-------------|--------------------------------------| 
|-------5---3---5----------5---3------|-5--5--3-------3---5---5---3---5---3--| 
|----------------------------------5--|-----------5--------------------------| 
 
|-----------------------------------------|-3--3--------------3---3---------------| 
|-3--3--------------3---3-----------------|-------5---3---5----------5---3---3--5-| 
|-------5---3---5----------5---3--3--4--5-|---------------------------------------| 
|-----------------------------------------|---------------------------------------| 
 
*Chorus 1* 
 
|-3--3--------------3---3---------------|---------------------------------------| 
|-------5---3---5----------3----------2-|-3--3----------------------------------| 
|------------------------------5---5----|-------3-------3---5---5----------5--7-| 
|---------------------------------------|-----------5--------------5---5--------| 
 
|-----------------------------------|---------5---------5-------5-------5-------5-| 
|-5--5------------------------------|-3--3--------3--3-------3-------3-------3----| 
|-------5----------3--3----3--3---5-|---------------------------------------------| 
|-----------3--5--------------------|---------------------------------------------| 
 
|---------5---------5-------5-----------5-------| 
|-3--3--------3--3-------3-----3-----3-----3----| 
|---------------------------------3-----------3-| 
|-----------------------------------------------| 
 
*VERSE 2* 
                                        
|-----------------------------------------|--------------------------------------| 
|-3--3--------------3---3-----------------|--------------------------------------| 
|-------5---3---5----------5---------3--4-|-5--5--3-------3---5---5---3---5---3--| 
|------------------------------3--5-------|-----------5--------------------------| 
 
|--------------------------------------|-3--3--------------3---3------3--3--2----| 
|-3--3--------------3---3--------------|-------5---3---5----------5------------3-| 
|-------5---3---5----------5---3--3--5-|-----------------------------------------| 
|--------------------------------------|-----------------------------------------| 
 
|-------------------------------5------5-|---------------------------------------| 
|-5--5--3-------------------5-------5----|-7--7----------------------------------| 
|-----------5-----5--3---3---------------|-------7------2--3--5--5------3---4--5-| 
|--------------5-------------------------|-----------5--------------5------------| 
 
|----------------------------------------|-3--3------3-------3-------------| 
|-5--5--3------3--4---5--5--3-------3--5-|-------3-------3-----------------| 
|-----------5-------------------5--------|----------------------3----------| 
|----------------------------------------|---------------------------------| 
 
*PRE-Chorus 2* 
                                        
|-------------------------------------|--------------------------------------| 
|-3--3--------------3---3-------------|--------------------------------------| 
|-------5---3---5----------5---3------|-5--5--3-------3---5---5---3---5---3--| 
|----------------------------------5--|-----------5--------------------------| 
 
|-----------------------------------------|-3--3--------------3---3------------3----| 
|-3--3--------------3---3-----------------|-------5---3---5----------5---3--5-----5-| 
|-------5---3---5----------5------3--4--5-|-----------------------------------------| 
|------------------------------5----------|-----------------------------------------| 
 
*Chorus 2* 
 
|-3--3--------------3---3---------------|--------------------------------------| 
|-------5---3---5----------3----------2-|-3--3---------------------------------| 
|------------------------------5---5----|-------5------3---5---5----------5--7-| 
|---------------------------------------|-----------5-------------5---5--------| 
 
|----------------------------------------|---------5---------5-------5-------5-------5-| 
|-5--5-----------------------------------|-3--3--------3--3-------3-------3-------3----| 
|-------5----------3--3--3----3--3---(3)-|---------------------------------------------| 
|-----------3--5-------------------------|---------------------------------------------| 
 
|---------5---------5-------5-----------5-------| 
|-3--3--------3--3-------3-----3-----3-----3----| 
|---------------------------------3-----------3-| 
|-----------------------------------------------| 
 
*INTERLUDE* 
 
|---------------------------------------|---------------------------------------| 
|-3--3--------------3---3---------------|-3--3--------------3---3---------------| 
|-------5---3---5----------5---3---3--5-|-------5---3---5----------5---3---3--5-| 
|---------------------------------------|---------------------------------------| 
 
|-----------------------------------------|-3--3--------------3---3---------------| 
|-3--3--------------3---3-----------------|-------5---3---5----------5---3---3--5-| 
|-------5---3---5----------5---3--3--3--5-|---------------------------------------| 
|-----------------------------------------|---------------------------------------| 
 
|-3--3--------------3---3---------------|-------------------------------------| 
|-------5---3---5----------3----------2-|-3--3--------------------------------| 
|------------------------------5---5----|-------3------3--5---5------5---7--5-| 
|---------------------------------------|-----------5------------5------------| 
 
|-------------------------------------| 
|-5--5--------------------------------| 
|-------5----------3--3------3---3--5-| 
|-----------5--7---------3------------| 
 
*PRE-Chorus 3* 
 
|----------------------------------------|--------------------------------------| 
|-3--3--------------3---3----------------|--------------------------------------| 
|-------5---3---5----------5--------3--4-|-5--5--3-------3---5---5---3---5---3--| 
|------------------------------(5)-------|-----------5--------------------------| 
 
|-----------------------------------------|-3--3--------------3---3---------------| 
|-3--3--------------3---3-----------------|-------5---3---5----------5---3---3--5-| 
|-------5---3---5----------5---3--4--5--5-|---------------------------------------| 
|-----------------------------------------|---------------------------------------| 
 
*Chorus 3 (fades out)* 
 
|-3--3--------------3---3---------------|--------------------------------------| 
|-------5---3---5----------3----------2-|-3--3---------------------------------| 
|------------------------------5---5----|-------5------3---5---5----------5--7-| 
|---------------------------------------|-----------5-------------5---5--------| 
 
|-------------------------------5---------|-------------12-13-14---------------------| 
|-5--5------------------------------------|------------------------------------------| 
|-------5---5------(3)--3--3-------3--(3)-|-------3-------------------------------3--| 
|--------------3--------------------------|-1--1-------------------------X--1--1-----| 
 
|-------------12-13-14---------------------| 
|------------------------------------------| (repeat) 
|-------3----------------------3--------3--| 
|-1--1----------------------1-----1--1-----| 
 
 

	  

Full key step upFull key step up
Half key step upHalf key step up
Half key step downHalf key step down
Full key step downFull key step down
Search Paypal
auto scroll beats size up size down change color hide chords drawings
tab show chords e-chords YouTube Clip e-chords hide all tabs e-chords go to top tab