Paloma Faith

home > Paloma Faith

Till I'm Done Bass Tab

Paloma Faith

Difficulty: nolevelnolevel

by lucicamargo

tuner correct add songbook print version text version save to e-mail
chordsukulelecavacokeyboardtabbassdrumsharmonicsflute Guitar Pro
chords

Till I'm Done

  		

Bass Intro: 
G|--------------------------------------------------------------| 
D|------------------------------5--7--7--5-7--7--5-7--7--5-7--7-| 
A|-8--8--6-8--8--6-8--8--6-8--8---------------------------------| 
E|--------------------------------------------------------------| 

verse 1:                                       (Play This Bit x3) 
G|--------------------------------------------------------------| 
D|------------------------------5--7--7--5-7--7--5-7--7--5-7--7-| 
A|-8--8--6-8--8--6-8--8--6-8--8---------------------------------| 
E|--------------------------------------------------------------| 

G|---------------------------------------------------------------| 
D|------------------------------5--7--7--5-7--7--5-7--7--5-7-/12-| 
A|-8--8--6-8--8--6-8--8--6-8--8----------------------------------| 
E|---------------------------------------------------------------| 

Pre-Chorus 
G|--------------------------------------------------------| 
D|---------------------------------7--7--7--7---5--5------| 
A|---------------------------------------------------2--4-| 
E|-10--10--10--10--10--10--10--10-------------------------| 

                                    (Break) 
G|-------------------------------------| 
D|-------------------------------------| 
A|-5--5--5--5--5--5--5--5---7--7--7--7-| 
E|-------------------------------------| 

Chorus:        Play This Bit x3)              b 
G|----------------------------------------------| 
D|-------------7--7--7--7---5--5--5--5--5--5----| 
A|-8--8--8--8---------------------------------7-| 
E|----------------------------------------------| 

                                              b     (Break) 
G|-------------------------------------------------| 
D|-------------7--7--7--7---5--5--5--5--5--5-----7-| 
A|-8--8--8--8---------------------------------7----| 
E|-------------------------------------------------| 

verse 2: 
G|--------------------------------------------------------------| 
D|------------------------------5--7--7--5-7--7--5-7--7--5-7--7-| 
A|-8--8--6-8--8--6-8--8--6-8--8---------------------------------| 
E|--------------------------------------------------------------| 

G|---------------------------------------------------------------| 
D|------------------------------5--7--7--5-7--7--5-7--7--5-7-/12-| 
A|-8--8--6-8--8--6-8--8--6-8--8----------------------------------| 
E|---------------------------------------------------------------| 

Pre-Chorus 
G|--------------------------------------------------------| 
D|---------------------------------7--7--7--7---5--5------| 
A|---------------------------------------------------2--4-| 
E|-10--10--10--10--10--10--10--10-------------------------| 

                                       (Break) 
G|-------------------------------------| 
D|-------------------------------------| 
A|-5--5--5--5--5--5--5--5---7--7--7--7-| 
E|-------------------------------------| 

Chorus:             (Play This Bit x3)        b 
G|----------------------------------------------| 
D|-------------7--7--7--7---5--5--5--5--5--5----| 
A|-8--8--8--8---------------------------------7-| 
E|----------------------------------------------| 

                                              b      (Break) 
G|-------------------------------------------------| 
D|-------------7--7--7--7---5--5--5--5--5--5-----7-| 
A|-8--8--8--8---------------------------------7----| 
E|-------------------------------------------------| 

Bridge:  .             .                                        . 
G|---------------------------------------------------------------------| 
D|-5-5-5--7--------5-5-5--7---------5-5-5---2--2--2--2/7--2--2--2/7\-3-| 
A|---------------------------------------------------------------------| 
E|---------------------------------------------------------------------| 

  .   .   .   .    .   . 
G|---------------------------------------------------| 
D|-7-----5-----5-----3-----/7-----5-----2/7--7--5--4-| 
A|---------------------------------------------------| 
E|---------------------------------------------------| 

Chorus 3:             (Play This Bit x3)       b 
G|-----------------------------------------------| 
D|-3--3--3--3/--7--7--7--7\--5--5--5--5--5--5----| 
A|---------------------------------------------7-| 
E|-----------------------------------------------| 

Outro:                                             (END) 
G|---------------------------------------------------| 
D|-3--3--3--3/--7--7--7--7\--5--5--5--5--5--5------7-| 
A|--------------------------------------------7--8---| 
E|---------------------------------------------------| 

Symbols:  b  Bend String 
         .  Pause Dots 
          \ - Slide Down 
          / - Slide Up 
	  

Search Paypal
auto scroll beats size up size down change color hide chords drawings
tab show chords e-chords YouTube Clip e-chords hide all tabs e-chords go to top tab