Bad Religion

home > Bad Religion

Epifany Bass Tab

Bad Religion

Difficulty: nolevelnolevel

tuner correct add songbook print version text version save to e-mail
chordsukulelecavacokeyboardtabbassdrumsharmonicsflute Guitar Pro
chords

Epifany

  		

Intro.  Yes, these are really bass chords.  Can you handle it?

G--10-10-10-10--------12-12-12-12------7-7-7-7-----6-6-6-6---------------------
D---0---0---0---0-----------------------------------------------------------------------------
A------------------------------------------------------------------------------------------------
E---------------------------12-12-12-12------6-6-6-6------5-5-5-5--------------------

verse 1A new age of reason...  twice
G----------------------------------------------------------------------------------------------
D----------------------------------------------------------------------------------------------
A--5-5-5-5----3-3-3-3----1-1-1-1---0-0-0-0-----------------------------------------
E----------------------------------------------------------------------------------------------

prechorus  once
G----------------------------------------------------------------------------------------------
D---------------------------------------------------7--7-5--5-3--3-2-2-------------------
A--0-0-1-0--0-0-1-0--0-0-1-0--0-0-1-0----------------------------------------------
E----------------------------------------------------------------------------------------------

chorus repeat
G----------------------------------------------------------------------------
D---------------------------------------------3-3------------3-3-2-2----
A---5-5-5-5-5-5--0-0-1-1-1-1-1-1---------3-3-3-3---------------
E----------------------------------------------------------------------------

bridge (and outro)
G------------------------------------------------------------------------------------------
D--3-3-3-3-2-3-2-----------------------------------3-3-3-3-------------------------
A---------------------0-0-0-0-0-0-0-0--5-5-5-5------------3-3-3-3--1-1-1-1--
E------------------------------------------------------------------------------------------

verse 2 a: (part before solo)  twice
G--------------------------------------------------------------------------------------------------
D-----------------------3-3-3-3-----------------------------------------------------------------
A-0-0-0-0-0-0-0-0------------3-3-3-3------------------------------------------------------
E---------------------------------------------3-3-3-3-3-3-3-3--------------------------------

verse 2 b:  once
G-----------------------------------------------------------------------------------------
D-----------------------------------------------------------------------------------------
A-0-0-0-0-0-0-0-0---3-3-3-3--5-5-5-5---0-0-0-0-0-0-0-0------------------
E-----------------------------------------------------------------------------------------

Solo a:        many times
G----------------------------------------------------------------------------------------------
D----------------------------------------------------------------------------------------------
A--1-1-1-1------------3-3-3-3-3-3-3-3-------------------------------------------------
E-------------1-1-1-1-----------------------------------------------------------------------

solo b:
G----------------------------------------------------------------------------------------------
D----------------------------------------------------------------------------------------------
A--0-0-1-0--0-0-1-0--0-0-1-0--0-0-1-0----------------------------------------------
E----------------------------------------------------------------------------------------------

	  

Search Paypal
auto scroll beats size up size down change color hide chords drawings
tab show chords e-chords YouTube Clip e-chords hide all tabs e-chords go to top tab