Agent Orange

Bored Of You

Agent Orange

bass

by  DEIVCAVALCANTI

save to print version add songbook text version e-mail correct tuner
chordsukulelecavacokeyboardtabbassdrumsharmonicaflute Guitar Pro
close

there isn't a video lesson for this song

chords

Bored Of You

	  		
Intro 

G|----------------------------------| 
D|---10-9-8-7--10-9-8-7--10-9-8-7---| 
A|----------------------------------| 
E|----------------------------------| 


Verse 
                          Part one                      Part two    

G|--5-7-5---5-7-5---5-7-5---5-7-5----|--5--7-7-5----5--7-7-5------| 
D|--------7-------7-------7-------7--|-----------7-----------5----| 
A|-----------------------------------|----------------------------| 
E|-----------------------------------|----------------------------| 


Chorus 
(PALM MUTEED)  
G|------------------------------------|-----------------------------------| 
D|------------------------------------|-----------------------------------| 
A|----------3-3-3-3--5-5-5-5--8-8-8-7-|--------3-3-3-3--5-5-5-5--8-8-8-7--| 
E|--5-5-5-5---------------------------|-5-5-5-5----------------------------| 

"I'm so bored of, I'm so Bored of..." 

Outro 
G|----------------------------------| 
D|---7-10-9-8-7-10-9-8-7-10-9-8-7---| End on the 7 (A) 
A|----------------------------------| 
E|----------------------------------| 
		  

Full key step upFull key step up
Half key step upHalf key step up
Half key step downHalf key step down
Full key step downFull key step down
hide glossary

See also:

bass Blink 182 - Aliens Exist bass Blink 182 - I Miss You ao vivo bass Blink 182 - Stay Together For the Kids bass Green Day - Brain Stew bass Goo Goo Dolls - Black Ballons bass Goo Goo Dolls - Iris
e-chords

Other versions:

bass Agent Orange - Bored Of You
auto scroll beats size up size down change color hide chords drawings
tab show chords e-chords YouTube Clip e-chords hide all tabs e-chords go to top tab

share