Van Halen

home > Van Halen

Running with the devil Tab

Van Halen

Difficulty: AdvancedAdvanced

by 2u4ubyu

tuner correct add songbook print version text version save to e-mail
chordsukulelecavacokeyboardtabbassdrumsharmonicsflute Guitar Pro
chords

Running with the devil

	   
G5 
3 5 5 x x xA5 
5 7 7 x x xE5 
0 2 2 x x x 
 
Gtr I (Eb Ab Db Gb Bb Eb) - 'Eddie Van Halen brown sound Rhythm' 
Gtr II (Eb Ab Db Gb Bb Eb) - 'Eddie Van Halen brown sound Lead' 
 
For Fills see end of Tab 
 
 Intro 
  Q=96 
 4/4 
  Gtr I 
                           |---5---| 
  W          W          Q  S S S S S E E  Q      e Q.   +Q.   S S 
|----------|----------|----x------------------||------------------| 
|----------|----------|------x----------------||-5-7----(7)---x-x-| 
|----------|----------|--------x--------------||-5-7----(7)---x-x-| 
|----------|----------|----------x------------||-5-7----(7)---x-x-| 
|----------|----------|------------x----------||------------------| 
|----------|----------|--------------x---17\--||------------------| 
 car horn fades in       rake strings behind nut 
 
  E  E   E E +Q   S   E.   e Q.   +Q.   S S   E  E   E E +Q   S   E. 
|------------------------|------------------|------------------------| 
|-7h=8--10-9-(9)---------|-5-7----(7)---x-x-|-7h=8--10-9-(9)---------| 
|-7-(7)--9-9-(9)---------|-5-7----(7)---x-x-|-7-(7)--9-9-(9)---------| 
|-7h=9--11-9-(9)---------|-5-7----(7)---x-x-|-7h=9--11-9-(9)---------| 
|------------------------|------------------|------------------------| 
|-----------------x/-19\-|------------------|-----------------x/-19\-| 
 
 
  e Q.   +Q.   S S   E  E   E E +Q   S   E. 
|------------------|------------------------| 
|-5-7----(7)---x-x-|-7h=8--10-9-(9)---------| 
|-5-7----(7)---x-x-|-7-(7)--9-9-(9)---------| 
|-5-7----(7)---x-x-|-7h=9--11-9-(9)---------| 
|------------------|------------------------| 
|------------------|-----------------x/-19\-| 
 
 
                              > 
  e Q.   +Q.   S S   E  E   E E +Q   +Q 
|------------------|----------------------|| 
|-5-7----(7)---x-x-|-7h=8--10-9-(9)--(9)\-|| 
|-5-7----(7)---x-x-|-7-(7)--9-9-(9)--(9)\-|| 
|-5-7----(7)---x-x-|-7h=9--11-9-(9)--(9)\-|| 
|------------------|----------------------|| 
|------------------|----------------------|| 
 
 
   Verses 
    $ 
      PM---|        PM     PM                PM 
    E E q  e q.     e Q.   e Q.     E E  q   e q. 
||----------------|---------------|-----------------| 
||o---------------|---------------|-----------------| 
||--2--------4----|---2------0----|-2----------4----| 
||--2--------5----|---4------2----|-2---(2)----5----| 
||o-0---0--0------|-0------0------|-0----0---0------| 
||----3-----------|---------------|---3-------------| 
 
 
Play Fill 1 - 2nd time 
Play Fill 2 - 3rd time 
 
  E E  S  S   S    S    +S    S   E   Q 
|----------------<12>-(<12>)-----<7>-----|| 
|-----------<12>-------------<7>---------|| 
|-2-0--------------------------------<5>-|| 
|-4-2s(5)--------------------------------|| 
|----------------------------------------|| 
|----------------------------------------|| 
 
 
                                                          < 
         pm       pm     pm              pm 
  e e q  e q.     e q.   e q.     e e q  e q.     e q.    q.   +e 
|---------------|---------------|---------------|--------!0----------|| 
|---------------|---------------|---------------|--------!0----------|| 
|-2--------4----|---2------0----|-2--------4----|-2-0----!0----------|| 
|-2--------5----|---4------2----|-2---2----5----|-4-2----!2----(2)/--|| 
|-0---0--0------|-0------0------|-0---0--0------|--------!2----(2)/--|| 
|---3-----------|---------------|---3-----------|--------!0----------|| 
 
 
 Chorus 
  e q.   +q.   s s   e  e   e e +q   s   e. 
|------------------|------------------------| 
|-5-7----(7)---x-x-|-7h=8--10-9-(9)---------| 
|-5-7----(7)---x-x-|-7-(7)--9-9-(9)---------| 
|-5-7----(7)---x-x-|-7h=9--11-9-(9)---------| 
|------------------|------------------------| 
|------------------|-----------------x/-19\-| 
 
 
  e q.   +q.   s s   e  e   e e +q   s   e. 
|------------------|-------------------------| 
|-5-7----(7)---x-x-|-7h=8--10-9-(9)----------| 
|-5-7----(7)---x-x-|-7-(7)--9-9-(9)----------| 
|-5-7----(7)---x-x-|-7h=9--11-9-(9)----------| 
|------------------|-------------------------| 
|------------------|-----------------x/-19\--| 
 
 
  e q.   +q.   s s   e  e   e e +q   s   e. 
|------------------|------------------------| 
|-5-7----(7)---x-x-|-7h=8--10-9-(9)---------| 
|-5-7----(7)---x-x-|-7-(7)--9-9-(9)---------| 
|-5-7----(7)---x-x-|-7h=9--11-9-(9)---------| 
|------------------|------------------------| 
|------------------|-----------------x/-19\-| 
 
 
                    1. 
                              > 
  e Q.   +Q.   S S   E  E   E E +Q   +Q 
|------------------|-------------------------|| 
|-5-7----(7)---x-x-|-7h=8--10-9-(9)--(9)\---o|| 
|-5-7----(7)---x-x-|-7-(7)--9-9-(9)--(9)\----|| 
|-5-7----(7)---x-x-|-7h=9--11-9-(9)--(9)\----|| 
|------------------|------------------------o|| 
|------------------|-------------------------|| 
 
 
 Guitar Solo 
  2.,D.S. 
                         To Coda 
                                  A5 
                                  Gtr I 
                                   H                       H 
                                   |                       | pick scrape 
                                   /                       x 
 
  Gtr I 
  E  E   E E +Q     Q              W 
|-------------------------------| 
|-7h=8--10-9-(9)----------------| 
|-7-(7)--9-9-(9)----------------| 
|-7h=9--11-9-(9)----------------| 
|-------------------------------| 
|-----------------/17\----------| 
| 
| Gtr II                          Gtr II 
|                                                    PM------|   ~~ 
| H           Q     S  S   S  S    S  S  S  S  S  S  S  S  S  S  E  +S   S  S  S 
|-------------------x-----------|------------------------------------------------| 
|-------------------x-----------|-14-15-17-15-15p14-------14---------------------| 
|----------------------------14-|-------------------14-------14---------------12-| 
|------------------------/14----|----------------------14-------14-(14)\---12----| 
|-------------------------------|------------------------------------------------| 
|-------------------------------|------------------------------------------------| 
 
 
  G5                                            E 
   H.                                  +E       E 
   |                                    |       | 
   /                                    /       o 
 
                           PM       ~~~~~~~~ 
   S   S  S   S   S  S  S  S  S  S  E  +S     E    S 
|-----------------------------------------------------| 
|-12--13-15p(13)-13p12-------12-----------------------| 
|----------------------12-------12----------------14--| 
|-------------------------12-------12-(12)\-/14-------| 
|-----------------------------------------------------| 
|-----------------------------------------------------| 
 
 
  A5 
   H                             H 
   |                             | 
   /                             x 
 
                                        ~~ 
   S  S  S  S  S  S  a      +E   S  S   Q  S  S 
|-------------------17b19==(17)-17-17r-17-------| 
|-14-15-17-15-15p14------------------------x-12-| 
|-----------------------------------------------| 
|-----------------------------------------------| 
|-----------------------------------------------| 
|-----------------------------------------------| 
 
 
  G5                       E5    A 
   H                         Q     Q 
   |                         |     | 
   /                         /     o 
 
   S  S  S  S  E  e  a      +Q    +Q 
|-------------14-15-14b15==(14)r=(14)\--|| 
|-12h13-15p13-15-16-15b17==(15)r=(15)\--|| 
|---------------------------------------|| 
|---------------------------------------|| 
|---------------------------------------|| 
|---------------------------------------|| 
 
 
  Gtr I 
  e Q.   +Q.   S S   E  E   E E +Q   S   E. 
|------------------|------------------------| 
|-5-7----(7)---x-x-|-7h=8--10-9-(9)---------| 
|-5-7----(7)---x-x-|-7-(7)--9-9-(9)---------| 
|-5-7----(7)---x-x-|-7h=9--11-9-(9)---------| 
|------------------|------------------------| 
|------------------|-----------------x/-19\-| 
 
 
                               D.S. al Coda (no repeat take 2nd ending) 
                                 > 
  e Q.   +Q.   S S   E  E   E E +Q   +Q 
|------------------|------------------------|| 
|-5-7----(7)---x-x-|-7h=8--10-9-(9)--(9)\---|| 
|-5-7----(7)---x-x-|-7-(7)--9-9-(9)--(9)\---|| 
|-5-7----(7)---x-x-|-7h=9--11-9-(9)--(9)\---|| 
|------------------|------------------------|| 
|------------------|------------------------|| 
 
 
 Guitar Solo 
  & 
  A5 
  Gtr I 
   H                       H 
   |                       | 
   /                       x 
 
  Gtr II 
                     PM|         ~~ 
   S  S  S  S  S  S  S  S  S  S  E  +S  S  S  S 
|-----------------------------------------------| 
|-14-15-17-15-15p14-------14--------------------| 
|-------------------14-------14--------------12-| 
|----------------------14-------14-(14)S5s12----| 
|-----------------------------------------------| 
|-----------------------------------------------| 
 
 
  G5                                           E 
   H.                                +E      S  S 
   |                                  |      |  | 
   /                                  /      x  o 
 
                                  ~~ 
   S   S  S  S  S  S  S  S  S  S  E  +S   S  S  S 
|-------------------------------------------------| 
|-12--13-15-13-13p12-------12---------------------| 
|--------------------12-------12---------------14-| 
|-----------------------12-------12-(12)\-7s14----| 
|-------------------------------------------------| 
|-------------------------------------------------| 
 
 
  A5 
   H                              H 
   |                              | 
   /                              x 
 
                                  |---------------6----------------| 
   S  S  S  S  S  S  a      +E   +S   +S       +S   +S       +S   +S       +S   S  S  S 
|---------------------------------------------------------------------------------------| 
|-14-15-17-15-15p14-18b22==(18)-(18)r(18)b22==(18)r(18)b22==(18)r(18)b22==(18)r---------| 
|------------------------------------------------------------------------------------12-| 
|-------------------------------------------------------------------------------xS12----| 
|---------------------------------------------------------------------------------------| 
|---------------------------------------------------------------------------------------| 
 
 
  G5                        E5    A 
   Q.              E          Q     Q 
   |               |          |     | 
   /               x          /     o 
 
   S   S  S  S  e  e  a      +Q    +Q 
|--------------------14b15==(14)--(14)r\---|| 
|-12--13-15p13-15-16-15b17==(15)--(15)r\---|| 
|------------------------------------------|| 
|------------------------------------------|| 
 
|------------------------------------------|| 
|------------------------------------------|| 
 
 
   Out-Chorus 
                      1.,2.,3.,4.                 5. 
    Gtr I 
    e Q.   +Q.   S S   E  E   E E +Q   S   E.      E  E   E E +E  +E   Q 
||-------------------|-------------------------||-------------------------*| 
||o-5-7----(7)---x-x-|-7h=8--10-9-(9)---------o||--7h=8--10-9-(9)-(9)\----*| 
||--5-7----(7)---x-x-|-7-(7)--9-9-(9)----------||--7-(7)--9-9-(9)-(9)\----*| 
||--5-7----(7)---x-x-|-7h=9--11-9-(9)----------||--7h=9--11-9-(9)-(9)\----*| 
||o------------------|------------------------o||-------------------------*| 
||-------------------|-----------------x/-19\--||-------------------------*| 
 
 
 Fill 1                Fill 2 
  e Q  E a a H          E E +S    S    S   S   S   S   S   S   Q 
|--------------------||--------------<12>---------------------<5>--|| 
|--------7h9-9-------||---------------------------<7>-----<5>------|| 
|-4-0----7h9p7tr9----||---0-(0)-<12>----------<7>-----<5>----------|| 
|-5-2--2-------------||-5-2-(2)-----------<7>----------------------|| 
|--------------------||--------------------------------------------|| 
|--------------------||--------------------------------------------|| 
 
********* 
You found it at E-Chords 
Submitted By: David Campbell 
Ontario Canada  
 

	  

there isn't a video lesson for this song

request
Full key step upFull key step up
Half key step upHalf key step up
Half key step downHalf key step down
Full key step downFull key step down
Search
auto scroll beats size up size down change color hide chords drawings
tab show chords e-chords YouTube Clip e-chords hide all tabs e-chords go to top tab