Van Halen

home > Van Halen

Can't Stop Loving You (ver.2) Tab

Van Halen

Difficulty: BeginnerBeginner

by Jonh Petrucci

tuner correct add songbook print version text version save to e-mail
chordsukulelecavacokeyboardtabbassdrumsharmonicsflute Guitar Pro
chords

Can't Stop Loving You (ver.2)

	  D 
x x 0 2 3 2 
Bm 
7 9 9 7 7 7 
G5 
3 x 0 0 3 x 
E 
0 2 2 1 0 0 
Esus4 
0 2 2 2 0 0 
Asus4 
x 0 2 2 3 0 
A 
x 0 2 2 2 0 
Asus2 
x 0 2 2 0 0 
C5 
x 3 5 5 x x 
Amadd9 
x 0 7 5 0 0 
F5 
1 3 3 x x x 
 
Gtr I (E A D G B E) - 'Eddie Van Halen - Rhythm w/dist' 
Gtr II (E A D G B E) - 'Eddie Van Halen - Rhythm clean electric' 
Gtr III (E A D G B E) - 'Eddie Van Halen - Rhythm steel string acoustic' 
Gtr IV (E A D G B E) - 'Eddie Van Halen - Lead w/dist & harmoniser' 
Gtr V (E A D G B E) - 'Eddie Van Halen - Lead clean electric' 
 
Intro 
  Q=116 
 4/4 
  Gtrs I, II, III 
  S S   E E E E +E  Q  E   +W 
|-0-0-|-0-0-0-0-(0)-0--0-|-(0)----| 
|-3-3-|-3-2-2-2-(2)-0--2-|-(2)----| 
|-2-2-|-2-2-2-2-(2)-2--2-|-(2)----| 
|-2-2-|-2-2-2-2-(2)-2--2-|-(2)----| 
|-0-0-|-0-0-0-0-(0)-0--0-|-(0)----| 
|-----|------------------|--------| 
 
 
  Gtr IV 
   ~~~~~~~~~~~~~~~~~~~~~~~~~ 
   W                    +Q.      a      +E   +E   +Q    E 
|--------------------|------------------------------------| 
|-10-----------------|-(10)-----10b12==(10)-(10)r(10)---9-| 
|--------------------|------------------------------------| 
|--------------------|------------------------------------| 
|--------------------|------------------------------------| 
|--------------------|------------------------------------| 
| 
| Gtrs I, II, III 
|    PM| 
|  e E E E  E  E E E     e  E E          E    E    E  E E 
|--0-----0-(0)-----0-|---0---------------0---(0)------0-0-| 
|--3-----2-(2)-----0-|---0---------------2---(2)------0-0-| 
|--2-----2-(2)-----2-|---2---------------2---(2)------2-2-| 
|--2-----2-(2)-----2-|---2---------------2---(2)----------| 
|--0-0-0-0--0--0-0-0-|---0--0-0----------0----0----0----0-| 
|--------------------|------------------------------------| 
|-Rhy Fig 1 
 
   ~~~~~~~~~~~~~~~~~~~~~~~~~ 
   W                    +Q.      a      +E   +Q     +E  E 
|--------------------|-------------------------------------| 
|-10-----------------|-(10)-----10b12==(10)-(10)r==(10)-9--| 
|--------------------|-------------------------------------| 
|--------------------|-------------------------------------| 
|--------------------|-------------------------------------| 
|--------------------|-------------------------------------| 
| 
|  e E E E  E  E E E     e  E E          E    E  E   E  E 
|--0-----0-(0)---0-0-|---0---------------0---(0)-----0--0--| 
|--3-----2-(2)---0-2-|---0---------------2---(2)-----0--0--| 
|--2-----2-(2)---2-2-|---2---------------2---(2)-----2--2--| 
|--2-----2-(2)---2-2-|---2---------------2---(2)-----2--2--| 
|--------------------|-------------------------------------| 
|--2-2-2-2--2--2-2-2-|---2--2-2----------2----2--2---2--2--| 
 
 
   ~~~~~~~~~~~~~~~~~~ 
   H.            +E   a      +E     +Q.     a      +E   +Q     +E  E 
|--------------------------------|-----------------------------------| 
|-10------------(10)-10b12==(10)-|-(10)r---10b12==(10)-(10)r==(10)-9-| 
|--------------------------------|-----------------------------------| 
|--------------------------------|-----------------------------------| 
|--------------------------------|-----------------------------------| 
|--------------------------------|-----------------------------------| 
| 
|  E  E E E E E   E           E     +Q.             E   +E  Q      E 
|-------------0---0-----------0--|--(0)-------------0---(0)-0--------| 
|--3--------3-2---2-----------0--|--(0)-------------0---(0)-0--------| 
|--2--------2-2---------------1--|--(1)-------------2---(2)-1--------| 
|--0--0-0-0-0-0---------------2--|--(2)-------------2---(2)-2--------| 
|-----------------------------2--|--(2)-------------2---(2)-2------0-| 
|-----------------------------0--|--(0)-------------0---(0)-0--------| 
 
 
   ~~~~~~~~~~~~~~~~~~~~~~~~~~~ 
   W                      +W 
|----------------------|---------|| 
|-10-------------------|-(10)----|| 
|----------------------|---------|| 
|----------------------|---------|| 
|----------------------|---------|| 
|----------------------|---------|| 
| 
|                |-3-| 
|  Q.   E +E  Q  S S S     W 
|--0----0-(0)-0--0-0-0-|---0-----|| 
|--3----2-(2)-0--2-2-2-|---2-----|| 
|--2----2-(2)-2--2-2-2-|---2-----|| 
|--2----2-(2)-2--2-2-2-|---2-----|| 
|--0----0-(0)-0--0-0-0-|---0-----|| 
|----------------------|---------|| 
                   end Rhy Fig 1-| 
 
 Verse 1 
  Gtrs I, II, III 
  e E E E  E  E E E   e E E E  E  E E E 
|-0-----0-(0)-------|-------0-(0)---0-0-| 
|-3-----2-(2)-----0-|-0-----2-(2)---0-2-| 
|-2-----2-(2)-----2-|-2-----2-(2)---2-2-| 
|-2-----2-(2)-----2-|-2-----2-(2)---2-2-| 
|-0-0-0-0--0--0-0-0-|-0-0-0-0--0--0-0-0-| 
|-------------------|-------------------| 
|-Rhy Fig 2 
 
  e E E E  E  E E E   e E E E  E  E E E 
|-0-----------------|-------0-(0)---0-0--| 
|-3-----2-(2)-----0-|-0-----2-(2)---0-2--| 
|-2-----2-(2)-----2-|-2-----2-(2)---2-2--| 
|-2-----2-(2)-----2-|-2-----2-(2)---2-2--| 
|-------------------|--------------------| 
|-2-2-2-2--2--2-2-2-|-2-2-2-2--2--2-2-2--| 
 
 
                                     PM 
  E E E E  E  E E E   +Q.   E +E  Q  E 
|-0---0-0-(0)-0-----|-------0-(0)-0----| 
|-3---3-3-(3)-2---0-|-(0)---0-(0)-0----| 
|-2---2-2-(2)-2---1-|-(1)---2-(2)-1----| 
|-0-0-0-0--0--0-0-2-|-(2)---2-(2)-2----| 
|-----------------2-|-(2)---2-(2)-2--0-| 
|-----------------0-|-(0)---0-(0)-0----| 
 
 
  e E E E  E  E E E   e E E E  E  E E E 
|-------------------|-------0-(0)---0-0--| 
|-3-----2-(2)-----0-|-0-----2-(2)---0-2--| 
|-2-----2-(2)-----2-|-2-----2-(2)---2-2--| 
|-2-----2-(2)-----2-|-2-----2-(2)---2-2--| 
|-0-0-0-0--0--0-0-0-|-0-0-0-0--0--0-0-0--| 
|-------------------|--------------------| 
 
 
  e E E E  E  E E E 
|-0---------------------| 
|-3-----2-(2)-----0-----| 
|-2-----2-(2)-----2-----| 
|-2-----2-(2)-----2-----| 
|-----------------------| 
|-2-2-2-2--2--2-2-2-----| 
 
 
   E      E     E E     +E  E     E E        E  E E E E E E S S 
|-----------------0-----(0)-------0-0-----|--0----0-0-0-0-------| 
|--0--------------2-----(2)-------0-2-----|--3----3-3-3-2---0-0-| 
|--2--------------2-----(2)-------2-2-----|--2----2-2-2-2---1-1-| 
|--2--------------2-----(2)-------2-2-----|--0--0-0-0-0-0-0-2-2-| 
|-----------------------------------------|-----------------2-2-| 
|--2------2-----2-2-----(2)-2-----2-2-----|-----------------0-0-| 
                                                  end Rhy Fig 2-| 
 
 
  Q.   E +E  Q  S S   E E Q  +E  q  S S   E E E E +E  E E S S 
|-0----0-(0)-0------|-------------------|-------2-(2)-2-2-----|| 
|-0----0-(0)-0------|-2----------2------|-----2-------2-2-3-3-|| 
|-1----1-(1)-1------|---2--------2------|---2---------2-2-2-2-|| 
|-2----2-(2)-2------|-----4--(4)-4------|-4-----------4-4-0-0-|| 
|-2----2-(2)-2--2s4-|------------4--2s4-|---------------------|| 
|-0----0-(0)-0------|-------------------|---------------------|| 
 
 
  Gtrs I, III 
 Pre-Chorus 
  D                                 Bm 
  W              +W                 W              +W 
  |               |                 |               | 
  /               /                 /               / 
  Gtr II 
                                           PM       PM------------| 
  H    E E E E    E E E E E E E E   H    E E E E    E E E E E E E E 
|------0-0-0-0-|--0-0-0-0-0-0-0-0-|-2----2---2---|-------------------| 
|-3----5-5-5-5-|--3-3-3-3-2-2-2-2-|-3----2-2-2-2-|--2-2-2-2-2-2-2-2--| 
|-2------------|------------------|-4------------|--4-4-4-4-2-2-2-2--| 
|-0------------|------------------|-4------------|-------------------| 
|--------------|------------------|-2------------|-------------------| 
|--------------|------------------|--------------|-------------------| 
 
 
  W             +W                W                 W 
  |              | 
  /              / 
                                Gtrs I, II, III 
                 PM----------| 
  H    E E Q     E E E E E E Q    H.      +E  S S   Q.   E H 
|-------------|-----------------|-0-------(0)-0-0-|-0----0-0----|| 
|-3-----------|-----------------|-0-------(0)-0-0-|-0----0-0----|| 
|-0--------0--|------0-0--------|-1-------(1)-2-2-|-2----1-1----|| 
|-0----4-4----|--2-2-2-2-0-0-0--|-2-------(2)-2-2-|-2----2-2----|| 
|-------------|-----------------|-2-------(2)-2-2-|-2----2-2----|| 
|-3-----------|-----------------|-0-------(0)-0-0-|-0----0-0----|| 
 
 
 Chorus 
  $ 
	w/Rhy Fig 1 (1st 6 bars only) 
  Gtr I 
  W                   +W                    W 
|-------------------|---------------------|-------------------| 
|-------------------|---------------------|-------------------| 
|-------------------|---------------------|-------------------| 
|-2-----------------|-(2)-----------------|-------------------| 
|-0-----------------|-(0)-----------------|-4-----------------| 
|-------------------|---------------------|-2-----------------| 
 
 
 
                                                           To Coda 
  +H        +E  Q.       H.           +E  E    H.           +E  S S 
|----------------------|--------------------|-----------------------| 
|----------------------|-3------------(3)---|-----------------------| 
|----------------------|-2------------(2)---|-----------------------| 
|----------------------|-0------------(0)---|-------------------2-2-| 
|-(4)-------(4)-x\-----|-0------------(0)---|--2------------(2)-0-0-| 
|-(2)-------(2)--------|------------------0-|--0------------(0)-----| 
 
 
 
  Gtrs II, III 
  Asus4    Asus2        E 
  Q.   E +E Q.           Q   Q   H 
  |    |  | |            | 
  /    /  / /            / 
  Gtr I 
  W                      q   Q   H 
|----------------|-----------------------|| 
|----------------|-----------------------|| 
|----------------|-----------------------|| 
|-2--------------|-----------------------|| 
|-0--------------|-------2---------------|| 
|----------------|-------0---------------|| 
| 
| Gtr V 
| W                a a a e E E e E E E E 
|----------------|-------5-7-4---0-------|| 
|----------------|-----5---------0-------|| 
|----------------|---6---------1-2p1-----|| 
|----------------|-5-----------------4s2-|| 
|----------------|-----------------------|| 
|----------------|-----------------------|| 
 
 
 Verse 2 
 w/Rhy Fig 2 
  Gtr IV 
                                                          T 
  W                   W                   H        Q    E E 
|-------------------|-------------------|-----------------------| 
|-------------------|-------------------|-----------------------| 
|-------------------|-------------------|-----------------------| 
|-------------------|-------------------|-----------------------| 
|-------------------|-------------------|-----------------------| 
|-------------------|-------------------|-----------------5(10)-| 
 
 
  T      T       T         T       T 
  +E      Q       Q         Q       E 
|------------------------------------------| 
|-----------------------------------5(10)--| 
|---------------------------6(11)----------| 
|-----------------7(12)--------------------| 
|---------7(12)----------------------------| 
|-(5(10))----------------------------------| 
 
 
  +W                     W 
|---------------------|------------------| 
|-(5)-----------------|------------------| 
|---------------------|------------------| 
|---------------------|------------------| 
|---------------------|------------------| 
|---------------------|------------------| 
 
 
 
              T                T               ~~~  T     T 
  H        E  S        +S  +E  S        +S    +Q    E     E     +Q       +E  +E 
|-------------------------------------------|-------------------------------------| 
|-------------------------------------------|-------------------------------------| 
|-------------6(11)b7==(6)r(6)-6(11)b7==(6)r|=(6)---------------------------------| 
|-------------------------------------------|-------7(12)-------------------------| 
|-------------------------------------------|-------------7(12)-(7)b9====(7)r(7)--| 
|-------------------------------------------|-------------------------------------| 
 
 
 
   ~~~ 
  +W                    W                   W 
|---------------------|-------------------|-------------------| 
|---------------------|-------------------|-------------------| 
|---------------------|-------------------|-------------------| 
|---------------------|-------------------|-------------------| 
|-(7)-----------------|-------------------|-------------------| 
|---------------------|-------------------|-------------------| 
 
 
  Gtrs I, II, III 
  Q.   E +E  E E E   Q  E E E E E S S   E E E E +Q.   S S 
|-0----0-(0)-------|--------------2-2-|-2-2-2-2-(2)-------|| 
|-0----0-(0)-------|--------------2-2-|-2-2-2-2-(2)-------|| 
|-1----2-(2)-1-----|-4------------4-4-|-4-4-4-4-(4)---5-5-|| 
|-2------------4-2-|-4------------4-4-|-4-4-4-4-(4)---5-5-|| 
|-2----------------|-2--2-2-2-2-2-2-2-|-2-2-2-2-(2)---3-3-|| 
|-0----------------|------------------|-------------------|| 
 
 
 Pre-Chorus 
  C5                                Amadd9 
  Gtrs I, III 
  W              +W                 W                 +W 
  |               |                 |                  | 
  /               /                 /                  / 
  Gtr II 
  H    E E E E    E E E E E E E E   E E E E E E E E    E E E E E E E E 
|------3-3-3-3-|--3---------------|-----------------|-------------------| 
|------3-3-3-3-|--3---3-3-3-3-3-3-|-0-0-0-0-0-0-0-0-|--0-0-0-0-0-0-0-0--| 
|-5----5-5-5-5-|--5-5-5-5-4-4-4-4-|-5-5-5-5-4-4-4-4-|--2-2-2-2-0-0-0-0--| 
|-5------------|------------------|-----------------|-------------------| 
|-3------------|------------------|-----------------|-------------------| 
|--------------|------------------|-----------------|-------------------| 
 
 
  F5                              E 
  W              +H.           +E S S   W                     W 
  |               |             | | | 
  /               /             / / / 
                                      Gtrs I, II, III 
  H    E E E E    E  E E E E E  E S S   Q.   E +E  Q   S S    W 
|--------------|----------------------|--------------------|------------------|| 
|--------------|------------------0-0-|-0----0-(0)-0---0-0-|--0---------------|| 
|------2-2-2-2-|--2--2-2-2-2-2----1-1-|-0----0-(0)-2---1-1-|--1---------------|| 
|-3----2-2-2-2-|--0--0-0-0--------2-2-|-2----2-(2)-2---2-2-|--2---------------|| 
|-3------------|-----------3-3--3-2-2-|-2----2-(2)-2---2-2-|--2---------------|| 
|-1------------|------------------0-0-|-0----0-(0)-0---0-0-|--0---------------|| 
| 
| Gtr IV 
| W               W                     H       Q    Q        H.       +E   E 
|--------------|----------------------|--------------------|------------------|| 
|--------------|----------------------|--------------------|------------------|| 
|--------------|----------------------|--------------------|------------------|| 
|--------------|----------------------|--------------------|------------------|| 
|--------------|----------------------|--------------------|------------------|| 
|--------------|----------------------|--------------5s====|=12-------(12)\---|| 
 
 
 Chorus 
 w/Rhy Fig 1 
  Gtr I 
  W                   +W 
|-------------------|---------------------| 
|-------------------|---------------------| 
|-------------------|---------------------| 
|-2-----------------|-(2)-----------------| 
|-0-----------------|-(0)-----------------| 
|-------------------|---------------------| 
 
 
  W                   +W 
|-------------------|----------------------| 
|-------------------|----------------------| 
|-------------------|----------------------| 
|-------------------|----------------------| 
|-4-----------------|-(4)------------------| 
|-2-----------------|-(2)------------------| 
 
 
  H.           +E  E    H.           +E  S S 
|--------------------|-----------------------| 
|-3------------(3)---|-----------------------| 
|-2------------(2)---|-----------------------| 
|-0------------(0)---|-------------------2-2-| 
|-0------------(0)---|--2------------(2)-0-0-| 
|------------------0-|--0------------(0)-----| 
 
 
  W                            +W 
|---------------------------|------------------------------------|| 
|---------------------------|------------------------------------|| 
|---------------------------|------------------------------------|| 
|-2-------------------------|--(2)-------------------------------|| 
|-0-------------------------|--(0)-------------------------------|| 
|---------------------------|------------------------------------|| 
| 
|Gtr V 
| H       Q    E  E            +E   E  E  +E       +E    E  E  E 
|---------------------------|------------------------------------|| 
|---------------------------|------17-------------------17-------|| 
|----------------16b18======|=(16)----16r(16)b18==(16)r----14----|| 
|---------------------------|---------------------------------16-|| 
|---------------------------|------------------------------------|| 
|---------------------------|------------------------------------|| 
 
 
 Bridge 
  Q  E E E E E E    E  E E E  E  E E S S   Q  E E E E E E   E E E E E E E E 
|----------------|-----------------------|----------------|-----------------| 
|-3--------------|-----------------------|-9--------------|-----------------| 
|-4--------------|--4--4-4-4-(4)-----9-9-|-9--------------|-6-6-6-6-2-2-2-2-| 
|-4--------4-----|--4--4-4-4-(4)-----9-9-|-9--------------|-6-6-6-6-2-2-2-2-| 
|-2--2-2-2-2-2-2-|--2--2-2-2--2--2-2-7-7-|-7--7-7-7-7-7-7-|-4-4-4-4-0-0-0-0-| 
|----------------|-------------------0-0-|-0--0-0-0-0-0-0-|-----------------| 
| 
| W                +Q.     E  E  E E E     W                E E E E E E Q 
|-7--------------|-(7)-------------------|-0--------------|-----------------| 
|-7--------------|-(7)---------------7---|-0--------------|-------5-----0---| 
|-7--------------|-(7)-------------7-----|-1--------------|-----6-----2-----| 
|-9--------------|-(9)-----------9-------|-2--------------|---6-------------| 
|-9--------------|-(9)-----7s=9----------|-2--------------|-4-------0-------| 
|-7--------------|-(7)-------------------|-0--------------|-----------------| 
 
 
  Q  E E E E E E    E  E E E  E  E E S S 
|----------------|-----------------------| 
|----------------|-----------------------| 
|-4--------------|--4--4-4-4-(4)-----9-9-| 
|-4--------4-----|--4--4-4-4-(4)-----9-9-| 
|-2--2-2-2-2-2-2-|--2--2-2-2--2--2-2-7-7-| 
|----------------|-------------------0-0-| 
| 
| W                +Q.     E  E  E E E 
|-7--------------|-(7)-------------------| 
|-7--------------|-(7)---------------7---| 
|-7--------------|-(7)-------------7-----| 
|-9--------------|-(9)-----------9-------| 
|-9--------------|-(9)-----7s=9----------| 
|-7--------------|-(7)-------------------| 
 
 
 
  Q   E E E E  E   E          E  E  E  E  E E E E 
|--------------------------|--------------------------|| 
|-9------------------------|--------------------------|| 
|-9------------------------|--------------------------|| 
|-9------------------------|--------------------------|| 
|-7---7-7-7-7--7---7-------|--7--7--7--7--7-7-7-7-----|| 
|-0---0-0-0-0--0---0-------|--0--0--0--0--0-0-0-0-----|| 
| 
|                  |--3--| 
| H.          +E   S  S  S    E  E  E  E  E E Q 
|-0-----------(0)----------|--------------------------|| 
|-0-----------(0)-10-10-10-|-10-10-10-10-10-9---------|| 
|-1-----------(1)--9--9--9-|--9--9--9--9--9-9---------|| 
|-2-----------(2)--9--9--9-|--9--9--9--9--9-9---------|| 
|-2-----------(2)--7--7--7-|--7--7--7--7--7-7---------|| 
|-0-----------(0)--0--0--0-|--0--0--0--0--0-0---------|| 
| 
| Gtr IV 
|                                               |-3-| 
| W                           H           Q   E S S S 
|--------------------------|--------------------------|| 
|--------------------------|--------------------8-8-8-|| 
|--------------------------|--------------------------|| 
|--------------------------|--------------------------|| 
|--------------------------|--------------------------|| 
|--------------------------|--------------------------|| 
 
 
 Guitar Solo 
  Gtr V 
                                           |-3-| |----6----| 
  E E E E +E  Q    a  E      +E  E E E +E  S S S S S S S S S 
|-------------------------|----------------------------------| 
|-8p7s5-5-(5)s8----8s10---|-(10)s8s7s5-(5)-------------------| 
|-------------------------|----------------------------5h7h9-| 
|-------------------------|----------------------5h7h9-------| 
|-------------------------|----------------5h7h9-------------| 
|-------------------------|----------------------------------| 
| 
| Gtrs II, III 
| E E E E +E  Q.              E  E E E +H 
|---3---------------------|------3-2-0-(0)-------------------| 
|-----3-------3-----------|---3------------------------------| 
|-------5-(5)-------------|---2------------------------------| 
|-------------------------|---0------------------------------| 
|-3-----------------------|----------------------------------| 
|-------------------------|----------------------------------| 
| 
| Gtr I 
| PM-------------|            PM---| 
| E E E E  E  E  E    S S     E  E E E +E  E     E     E 
|-------------------------|----------------------------------| 
|-------------------------|----------------------------------| 
|-------------------------|----------------------------------| 
|-------------------------|----------7-(7)-------------------| 
|-3-3-3-3--3--3--3----3s5-|---5--5-5-5-(5)-5-----5-----5-----| 
|-------------------------|----------------------------------| 
 
 
  ~~              ~~~~~~~~~ 
                                           |---3---|            |-----3------| 
  Q  E E +E  E a  Q    +W                  Q  Q    Q    a      +Q      Q     Q 
|--------------------|------------------|--------------------------------------| 
|-7h=8-7-(7)---------|------------------|----19---20---20b22==(20)r---15----17-| 
|------------7-7s=9--|-(9)--------------|--------------------------------------| 
|--------------------|------------------|--------------------------------------| 
|--------------------|------------------|--------------------------------------| 
|--------------------|------------------|--------------------------------------| 
| 
| Q  E E +E  E    Q    +H     +E  E E E    Q    E    E         +E   E     Q 
|--------------------|------------------|--------------------------------------| 
|--------------------|------------------|--------------------------------------| 
|----0-----------^0--|-(0)----(0)-------|-------0------------------------^0----| 
|-4----4-(4)-----^2--|-(2)----(2)-----2-|-^4---------4---------(4)-------^2----| 
|-5----------5---^3--|-(3)----(3)---3---|-^5------------------------5----^3----| 
|-5--------------^3--|-(3)----(3)-3-----|-^5-----------------------------^3----| 
 
 
    ~~~~ 
                                 |--3--|  |---3----|  |--3--| 
   +W                  E.  S  E  S  S  S  E   E    E  E  E  E 
|-------------------|-----12s17p15h17p15p14-------------------| 
|-(17)--------------|------------------------15---------------| 
|-------------------|-----------------------------14s12s11----| 
|-------------------|--------------------------------------12s| 
|-------------------|-----------------------------------------| 
|-------------------|-----------------------------------------| 
| 
|  +H     +E  E E E    Q      E  E       +E     E     Q 
|-------------------|-----------------------------------------| 
|-------------------|-----------------------------------------| 
|--(0)----(0)-------|---------0----------------------^0-------| 
|--(2)----(2)-----2-|-^4---------4-------(4)---------^2-------| 
|--(3)----(3)---3---|-^5------------------------5----^3-------| 
|--(3)----(3)-3-----|-^5-----------------------------^3-------| 
 
 
                        ~~~~~~~ 
      |-3-| 
   E  S S S E. S  S  S  E  +Q 
|---------------------------------| 
|---------------------------------| 
|---------------------------------| 
|--5h=7p5p4h5--4h=5h=7s12-(12)----| 
|---------------------------------| 
|---------------------------------| 
| 
| +H             +E     E   E  E 
|---------------------------------| 
|---------------------------------| 
|-(0)------------(0)--------------| 
|-(2)------------(2)-----------2--| 
|-(3)------------(3)--------3-----| 
|-(3)------------(3)----3---------| 
 
 
                  ~~~~~~~       ~~~~~~~~~~~~~~~~~~~~~~~~ 
        |-3-| 
   +E   S S S  E  E  +E   E  a  Q     +W            +W 
|----------------------------------|-------------|----------------------|| 
|----------------------------------|-------------|----------------------|| 
|-------------12-11-(11)----12s14--|-(14)--------|-(14)-----------------|| 
|-(12)\-----x------------12--------|-------------|----------------------|| 
|---------x------------------------|-------------|----------------------|| 
|-------x--------------------------|-------------|----------------------|| 
| 
|                                                Gtr II 
|                                                                 PM--| 
|   Q          E  E  +E   E     Q     +W             E  a E E E E E E E 
|------------------------------^0--|--(0)--------|----------------------|| 
|------------------------------^0--|--(0)--------|----------------------|| 
|--------------0---------------^2--|--(2)--------|------7s9p7p6---------|| 
|---4-------------4--(4)-------^2--|--(2)--------|--------------7-------|| 
|---5---------------------5----^0--|--(0)--------|----------------7-5-4-|| 
|---5------------------------------|-------------|----------------------|| 
 
 
  Gtr II 
  E E E E E E E E   E E E E E E E E   E E E E E E E E   E E E E E E E E 
|-----5-----5-----|---5-------5-----|-----5-----5-----|-----5-----5------| 
|---5-----5---5---|-5---5---5-------|---5-----5---5---|---5-----5--------| 
|-----------------|-----------------|-----------------|------------------| 
|-7-----6-------4-|-------6-----4-6-|-7-----6-------4-|-7-----6-----4-6--| 
|-----------------|-----------------|-----------------|------------------| 
|-----------------|-----------------|-----------------|------------------| 
 
 
                                   |--3--| 
  E E E E E E E E   E E E E E E E  S  S  S 
|-----5-----5-----|-----4---5p4------------| 
|---5-----5-------|---5---5-------15-15-15-| 
|-------7---------|---------------14-14-14-| 
|-7-----------4-6-|-4-------------14-14-14-| 
|-----------------|------------------------| 
|-----------------|------------------------| 
 
 
                                              D.S. al Coda 
                      |--3---| 
   Q   E  E  +E   E  +E   E  E    H.      S S E 
|---------0--(0)--0--(0)-------|-----------------|| 
|-15--14-14-(14)-12-(12)-14-14-|-14-------x-x----|| 
|-14--14-14-(14)-14-(14)-14-14-|-14-------x-x----|| 
|-14--14-14-(14)-14-(14)-14-14-|-14-------x-x----|| 
|------------------------------|-----------------|| 
|------------------------------|-----------------|| 
 
 
 Out-Chorus 
  & 
	w/Rhy Fig 1 (1st 6 bars x2) 
  Gtr I 
  W                   +W                    W 
|-------------------|---------------------|-------------------| 
|-------------------|---------------------|-------------------| 
|-------------------|---------------------|-------------------| 
|-2-----------------|-(2)-----------------|-------------------| 
|-0-----------------|-(0)-----------------|-4-----------------| 
|-------------------|---------------------|-2-----------------| 
 
 
  +W                    H.           +E  E    W 
|---------------------|--------------------|------------------| 
|---------------------|-3------------(3)---|------------------| 
|---------------------|-2------------(2)---|------------------| 
|---------------------|-0------------(0)---|------------------| 
|-(4)-----------------|--------------------|--2---------------| 
|-(2)-----------------|------------------0-|--0---------------| 
 
 
                         PM|                 PM------------| 
  Q.     E +Q.     E   E E E E +Q    E E   E E E E  E  E E E 
|--------------------|-------------------|-------------------| 
|--------------------|-------------------|-------------------| 
|--------------------|-------------------|-------------------| 
|-2------2-(2)-------|-2-----2-(2)---2-2-|-------------------| 
|-0------0-(0)-----0-|-0-0-0-0-(0)---0-0-|-4-----------------| 
|--------------------|-------------------|-2-2-2-2--2--2-2-2-| 
 
 
  PM----|                 PM| 
  E E E E  E  E E E   Q   E E E E E E 
|-------------------|---------------0-| 
|-------------------|-3-------3-2---0-| 
|-------------------|-2-------2-2---1-| 
|-------------------|-0---0-0-0-0---2-| 
|-4---------------4-|-------------0-2-| 
|-2-2-2-2--2--2-2---|---------------0-| 
 
 
                     Gtrs I, II, III 
  +Q.   E +E  Q  S S   Q  E E +E  Q  E   +W 
|-(0)---0-(0)-0--0-0-|-0--0-0-(0)-0--0-|-(0)----Asus4| 
|-(0)---0-(0)-0--3-3-|-3--2-2-(2)-0--2-|-(2)----Asus4| 
|-(1)---2-(2)-1--2-2-|-2--2-2-(2)-2--2-|-(2)----Asus4| 
|-(2)---2-(2)-2--2-2-|-2--2-2-(2)-2--2-|-(2)----Asus4| 
|-(2)---2-(2)-2--0-0-|-0--0-0-(0)-0--0-|-(0)----Asus4| 
|-(0)---0-(0)-0------|-----------------|--------Asus4| 

	  

there isn't a video lesson for this song

request
Full key step upFull key step up
Half key step upHalf key step up
Half key step downHalf key step down
Full key step downFull key step down
Search
auto scroll beats size up size down change color hide chords drawings
tab show chords e-chords YouTube Clip e-chords hide all tabs e-chords go to top tab