Slipknot

home > Slipknot > chords

Dead Memories Tab

Slipknot

Difficulty: ExpertExpert

by LordJuanMGC

tuner correct add songbook print version text version rtf version e-mail
chordsukulelecavacokeyboardtabbassdrumsharmonicsflute Guitar Pro
chords

Dead Memories

	  
Intro 

e|-------------------------------------------------------| 
B|-------------------------------------------------------| 
G|-------------------------------------------------------|2x 
D|--------8-----8---------------8-----8----8-------------| 
A|------5-----5-----5---------5-----5--------------------| 
E|----5-----8-----6---------5-----5-----5----------------| 

e|-------------------------------------------------------| 
B|-------------------------------------------------------| 
G|-------------------------------------------------------|1x 
D|--------8-----8---------------8-----8----8-------------| 
A|------5-----5-----5---------5-----5--------------------| 
E|----5-----6-----8---------5-----5-----5----------------| 

e|----------------------------------------------------| 
B|----------------------------------------------------| 
G|----------------------------------------------------| 
D|-----5----8----6------------------------------------| 
A|-----5----8----6-------5-5-5-5-5-5-5-5--------------| 
E|-----5----8----6-------5-5-5-5-5-5-5-5--------------| 
                         . . . . . . . . 
e|-------------------------------------------------------| 
B|-------------------------------------------------------| 
G|-------------------------------------------------------|2x 
D|--------8-----8---------------8-----8----8-------------| 
A|------5-----5-----5---------5-----5--------------------| 
E|----5-----8-----6---------5-----5-----5----------------| 

e|-------------------------------------------------| 
B|-------------------------------------------------| 
G|-------------------------------------------------|1x 
D|--------8-----8---------------8-----8---8--------| 
A|------5-----5-----5---------5-----5--------------| 
E|----5-----6-----8---------5-----5-----5----------| 

e|--------------------------| 
B|--------------------------| 
G|--------------------------|1x 
D|--------8-----8-----------| 
A|------5-----5-----5-------| 
E|----5-----8-----6---------| 

e|-------------------------------------------------------| 
B|-------------------------------------------------------| 
G|-------------------------------------------------------|1x 
D|-------------------------------------------------------| 
A|-------5-5-5-5-5-5-5-5-5-5-5-5-5-5-5-5-----------------| 
E|-------5-5-5-5-5-5-5-5-5-5-5-5-5-5-5-5-----------------| 
         . . . . . . . . . . . . . . . . 


 Verse 1 

e|------------------------------------------------| 
B|------------------------------------------------| 
G|------------------------------------------------|2x 
D|-------8-----8----------8*---8*--8*-------------| 
A|-----5-----5-----5------------------------------| 
E|---5-----8-----6----5-5--5-5--5-----------------| 
     . . . . . . . .  . .  . .  . 
e|-------------------------------------| 
B|-------------------------------------| 
G|-------------------------------------|1x. 
D|-------8-----8----------8*---8*--8*--| 
A|-----5-----5-----5-------------------| 
E|---5-----6-----8----5-5--5-5--5------| 
     . . . . . . . .  . .  . .  . 
e|------------------------------------------------| 
B|------------------------------------------------| 
G|------------------------------------------------|1x 
D|-------8-----8----------8*---8*--8*-------------| 
A|-----5-----5-----5------------------------------| 
E|---5-----8-----6----5-5--5-5--5-----------------| 
     . . . . . . . .  . .  . .  . 
e|---------------------------------------------| 
B|---------------------------------------------| 
G|---------------------------------------------|4x 
D|--------------------------8*---8*--8*--------| 
A|---------------------------------------------| 
E|-----5-5-5-8-8-8-6-6--5-5--5-5--5------------| 
       . . . . . . . .  . .  . .  . 

 Pre-chorus 

e|-----------------------------------------------------------------------------------| 
B|-----------------------------------------------------------------------------------| 
G|-----------------------------------------------------------------------------------|2x 
D|-----------------------------------------------------------------------------------| 
A|-----------8*---0-0-0-0--6-6-6-6-6-6-6-6------------8*---0-0-0-0--6-6-6-6--6-3-----| 
E|--5--8--7-------0-0-0-0--6-6-6-6-6-6-6-6---5--8--7-------0-0-0-0--6-6-6-6------5-0-| 
                  . . . .                                    . . . . 


 Chorus 
e|------------------------------------------------------------------| 
B|------------------------------------------------------------------| 
G|------------14-14-10-10--------14-14-15-15---------14-14-10-10----| 
D|-------------x--x-x--x----------x--x--x--x----------x--x--x--x----| 
A|----5-5-5-5-12-12-8--8-8-8-8-8-12-12-13-13-0-0-0-0-12-12--8--8----| 
E|----5-5-5-5------------8-8-8-8-------------0-0-0-0----------------| 

e|---------------------------------------------------------------| 
B|---------------------------------------------------------------| 
G|---------14-14-15-15---------14-14-10-10--------14-14-15-15----| 1x 
D|----------x--x--x--x----------x--x-x--x----------x--x--x--x----| 
A|10101010-12-12-13-13-5-5-5-5-12-12-8--8-8-8-8-8-12-12-13-13----| 
E|10101010-------------5-5-5-5------------8-8-8-8----------------| 
 this is not tremolo 
 picking there 10's. 
                                                                             e|--| 
B|-------------------------------------------------------------------------------| 
G|-------------------------------------------------------------------------------| 
D|-------------------------------------------------------------------------------| 
A|---3-3-3-2--2-2-2-1-1-1-0-0-0--------------------------------------------------| 
E|---3-3-3-2--2-2-2-1-1-1-0-0-0--------------------------------------------------| 


 Pre-verse 
e|-------------------------------------------------------| 
B|-------------------------------------------------------| 
G|-------------------------------------------------------|1X 
D|--------8-----8---------------8-----8----8-------------| 
A|------5-----5-----5---------5-----5--------------------| 
E|----5-----8-----6---------5-----5-----5----------------| 

e|-----------------------------------------------| 
B|-----------------------------------------------| 
G|-----------------------------------------------|1x 
D|----------8-----8------------------------------| 
A|--------5-----5-----5-----5-5-5-5-5-5-5-5-\18/-| 
E|------5-----6-----8-------5-5-5-5-5-5-5-5-\18/-| 
                            . . . . . . . . 
 Verse 2 

e|-------------------------------------------------------------------| 
B|-------------------------------------------------------------------| 
G|-------------------------------------------------------------------|2x 
D|-------------------------------------------------------------------| 
A|-------------------------------------------------------------------| 
E|----0-0-0-0-3-3-3-3-1-1-1-1-0-0-0-0-3-3-0-0-0-0-3-3-0-0-3-3--------| 
      . . . . . . . . . . . . . . . . . . . . . . . . . . . . 
e|-------------------------------------------------------------------| 
B|-------------------------------------------------------------------| 
G|-------------------------------------------------------------------|1x 
D|-------------------------------------------------------------------| 
A|-------------------------------------------------------------------| 
E|----0-0-0-0-1-1-1-1-3-3-3-3-0-0-0-0-3-3-0-0-0-0-3-3-0-0-3-3--------| 
      . . . . . . . . . . . . . . . . . . . . . . . . . . . . 
e|-------------------------------------------------------------------| 
B|-------------------------------------------------------------------| 
G|-------------------------------------------------------------------|1x 
D|-------------------------------------------------------------------| 
A|-------------------------------------------------------------------| 
E|----0-0-0-0-3-3-3-3-1-1-1-1-0-0-0-0-3-3-0-0-0-0-3-3-0-0-3-3--------| 
      . . . . . . . . . . . . . . . . . . . . . . . . . . . . 


 Pre-Chorus 2x 

 Chorus 2x 

 Interlude 

e|------------------------------------------------------------------------| 
B|------------------------------------------------------------------------| 
G|------------------------------------------------------------------------|1x 
D|--------8-----8---------------8-----8----8----------8-----8-------------| 
A|------5-----5-----5---------5-----5---------------5-----5-----5---------| 
E|----5-----8-----6---------5-----5-----5---------5-----6-----8-----------| 

e|-------------------------------------| 
B|-------------------------------------| 
G|-------------------------------------|4x 
D|-------0--0-----0--0-----0-----------| 
A|-------5--5-----5--5-----5-----------| 
E|----5--------5--------5--------------| 
      .        .        . 


 Solo 
e|------------------------------------------------------| 
B|----\8\13--15--15^^^--18--20--16--20-16-18-16^^^------| 
G|------------------------------------------------------| 
D|------------------------------------------------------| 
A|------------------------------------------------------| 
E|------------------------------------------------------| 

e|---------------------------------------------------------------------------| 
B|-----------15-16-18-16-15-16-----------------------------------------------| 
G|-----------------------------19-20-22-19-20-19-17-13-17--------------------| 
D|--15-17-18---------------------------------------------18-17-15-18-17-15---| 
A|---------------------------------------------------------------------------| 
E|---------------------------------------------------------------------------| 

e|---------------------------------------------------------------------------| 
B|---------------------------------------------------------------------------| 
G|---------------------------------------------------------------------------| 
D|----13-12-10-13-12-10-18-17-15-13-12-10-13-12-10-13-12-13-12-13-12-13-12---| 
A|---------------------------------------------------------------------------| 
E|---------------------------------------------------------------------------| 

e|-----------------------------------------------------------------------------| 
B|-----------------------------------------------------------------------------| 
G|----------------------------------------------------------\15\18-15-15-------| 
D|---13-12-13-12---------------------------------------------------------------| 
A|---------------10-\10--17-17-15-20-15-17-17-15-18-15-17-15-------------------| 
E|-----------------------------------------------------------------------------| 

e|--------------------------------------------------| 
B|--------------------------------------------------| 
G|--------------------------------------------------| 
D|--19-19-17-17-------------15-15-------------------| 
A|--------------17-17-15-15-------17-17-15\17~~~~~--| 
E|--------------------------------------------------| 

 Bridge 

e|-----------5----------------------------------------------| 
B|--------------6--------11----------10------------11-------| 
G|--------------------------------------10------------------|2 1/2x 
D|-------5-----------8-----------0------------10------------|Switch to 
A|----------------------------------------------------------|clean on Amp. 
E|----------------------------------------------------------| 

e|---------------------------------------------------------| 
B|---------------------------------------------------------| 
G|---------------------------------------------------------|1x 
D|----18/--------------------------------------------------|Back to 
A|----18/------3-3-3-2--2-2-2-1-1-1-0-0-0-0----------------|distortion 
E|----18/------3-3-3-2--2-2-2-1-1-1-0-0-0-0----------------|for rest of song 


 Chorus 2x 

 Final Solo 

e|-----------------------------------------------------------------------------| 
B|--15h16p15-13p15^^^--13-15---15h16p15-13p15^^^--13-15---16^-15^-13^--13------| 
G|-------------------------------------------------------------------15--------| 
D|-----------------------------------------------------------------------------| 
A|-----------------------------------------------------------------------------| 
E|-----------------------------------------------------------------------------| 

e|---------------------------------------------------------------------------| 
B|---13^---------------------------------------------------------------------| 
G|-------15-17-14h15p14-15-17-15^^^14-12----12h15p14h12---17--15-14--14h15---| 
D|---------------------------------------------------------------------------| 
A|---------------------------------------------------------------------------| 
E|---------------------------------------------------------------------------| 

e|-------------------------------------------------------------------| 
B|-------------------------------------------------------------------| 
G|----14h15----------------------------------------------------------| 
D|-------------------------------------------------------------------| 
A|------------3-3-3-2--2-2-2-1-1-1-0~~~~~~~~~~~~~~~~~~~~~~~----------| 
E|------------3-3-3-2--2-2-2-1-1-1-0~~~~~~~~~~~~~~~~~~~~~~~----------| 
	  

Request the video "Dead Memories"  -  Send "Dead Memories" Ringtone to your Cell

there isn't a video lesson for this song

request
e-chords
Search
auto scroll beats size up size down change color hide chords drawings
tab show chords e-chords YouTube Clip e-chords hide all tabs e-chords go to top tab