Romeo Santos

home > Romeo Sant... > chords

Llevame Contigo Tab

Romeo Santos

Difficulty: BeginnerBeginner

by juniorcosta007

tuner correct add songbook print version text version rtf version e-mail
chordsukulelecavacokeyboardtabbassdrumsharmonicsflute Guitar Pro
chords

Llevame Contigo

(Romeo Santos)

	  Intro 
E|--10-10--8-8s6-6-6s5--5-5-h6---- 
B|-----------------------------8-- 
G|-------------------------------- 
D|-------------------------------- 
A|-------------------------------- 
E|-------------------------------- 

E|-------6-8s11---- 
B|--8-10----------- 
G|----------------- 
D|----------------- 
A|----------------- 
E|----------------- 

E|--11-11-10-10s8-8-8-6-6h8---- 
B|------------------------------ 
G|------------------------------ 
D|------------------------------ 
A|------------------------------ 
E|------------------------------ 

E|--10-10--8-8s6-6-6s5--5-5-h6---- 
B|-----------------------------8-- 
G|-------------------------------- 
D|-------------------------------- 
A|-------------------------------- 
E|-------------------------------- 

E|-------6-6h8----- 
B|--8-10-------8--- 
G|----------------- 
D|----------------- 
A|----------------- 
E|----------------- 

E|--11-11-10-10s8-8-8-6-8s10-8-- 
B|------------------------------ 
G|------------------------------ 
D|------------------------------ 
A|------------------------------ 
E|------------------------------ 

E|--6---------13----------6---------5---------11----------6-------8--- 
B|----8----------13---------8---------6----------13---------6--------- 
G|------7-----------14--------7---------7-----------12--------7------- 
D|-------------------------------------------------------------------- 
A|-------------------------------------------------------------------- 
E|-------------------------------------------------------------------- 

Solo 
E|------------------------------------------------------------ 
B|--10h11-------------------10h11----------------------------- 
G|--------10h12-10h12-10h12-------10h12-10h12-10h12----------- 
D|------------------------------------------------------------ 
A|------------------------------------------------------------ 
E|------------------------------------------------------------ 
E|------------------------------------------------------------ 

B|--10h11-------------------10h11-10h11-10h11-10h11----------- 
G|--------10h12-10h12-10h12----------------------------------- 
D|------------------------------------------------------------ 
A|------------------------------------------------------------ 
E|------------------------------------------------------------ 

E|--11h13-------------------11h13----------------------------- 
B|--------11h13-11h13-11h13-------11h13-11h13-11h13----------- 
G|------------------------------------------------------------ 
D|------------------------------------------------------------ 
A|------------------------------------------------------------ 
E|------------------------------------------------------------ 

E|--------------------------- 
B|---8-10-10s11-10-8-5h7-5--- 
G|--------------------------- 
D|--------------------------- 
A|--------------------------- 
E|--------------------------- 

FINAL 
E|--10-10--8-8s6-6-6s5--5-5-h6---- 
B|-----------------------------8-- 
G|-------------------------------- 
D|-------------------------------- 
A|-------------------------------- 
E|-------------------------------- 

E|--11-11-10-10s8-8-8-6-8s10-8-8-8-8-8-8--- 
B|----------------------------------------- 
G|----------------------------------------- 
D|----------------------------------------- 
A|----------------------------------------- 
E|----------------------------------------- 

E|--8h10-10-8-8--8-8-10-8h10-6- 
B|----------------------------- 
G|----------------------------- 
D|----------------------------- 
A|----------------------------- 
E|----------------------------- 

E|-------6-6h8----- 
B|--8-10-------8--- 
G|----------------- 
D|----------------- 
A|----------------- 
E|----------------- 

E|--11-11-10-10s8-8-8-6-8s10-8-- 
B|------------------------------ 
G|------------------------------ 
D|------------------------------ 
A|------------------------------ 
E|------------------------------ 

(Esta última se repite varias vezes é a parte final que diz:( 
take me with you tomorrow, take and I wont brother 
take me with you tomorrow, take and I wont brother 
take me take me take me take me take me with you 
tomorrow tomorrow tomorrow tomorrow tomorrow 
you need this in your life. 

E|-4s5-4s5-4s5-4s5-4s5-4s5-4s5-4s5-4s5-5s7-5s7-5s7- 
B|------------------------------------------------- 
G|------------------------------------------------- 
D|------------------------------------------------- 
A|------------------------------------------------- 
E|------------------------------------------------- 

Arpejo La maior 
E|--------------- 
B|-----2--2---2-- 
G|----2--2------- 
D|---2--2---2---- 
A|--------------- 
E|--------------- 

Mi maior 
E|------------------- 
B|------0---0----0--- 
G|-----1---1--------- 
D|----2---2----2----- 
A|------------------- 
E|------------------- 

Fam# 
E|------------------- 
B|--------2----2---2- 
G|-------2----2------ 
D|------4----4---4--- 
A|------------------- 
E|------------------- 

Re maior 
E|----2---2----2--- 
B|---3---3--------- 
G|--2---2----2----- 
D|----------------- 
A|----------------- 
E|----------------- 

Si menor 
E|----2----2--2-- 
B|---3----3------ 
G|--4----4--4---- 
D|--------------- 
A|--------------- 
E|--------------- 

Parte final do refrão: 
"¿DONDE SE FUE TU AMOR PARA BUSCARLO RAPIDO?!"  
SE TOCA: 
Fa menor# Mi mayor Re mayor La mayor Mi mayor Si menor Mi mayor 
E|------------------------------2----------0-----------0--------2---------0---- 
B|------2---------0------------3----------2-----------0--------3---------0----- 
G|-----2---------1------------2----------2-----------1--------4---------1------ 
D|----4---------2-------------------------------------------------------------- 
A|----------------------------------------------------------------------------- 
E|----------------------------------------------------------------------------- 
	  

Request the video "Llevame Contigo"  -  Send "Llevame Contigo" Ringtone to your Cell

there isn't a video lesson for this song

request
Search
auto scroll beats size up size down change color hide chords drawings
tab show chords e-chords YouTube Clip e-chords hide all tabs e-chords go to top tab