Norah Jones

home > Norah Jone... > chords

In the morning Tab

Norah Jones

Difficulty: ExpertExpert

tuner correct add songbook print version text version rtf version e-mail
chordsukulelecavacokeyboardtabbassdrumsharmonicsflute Guitar Pro
chords

In the morning

	   
Capo 1 
 
verse: 
 
|-----0-----------------| 
|----------3----2----0--| 
|---4----4----4----4----| 
|----6----6----6----6---| 
|-----------------------| 
|--0----0----0----0-----| 
 
"In the morning...": 
 
|-------------------------------------------| 
|-----2----2----2----3----3----3----3-------| 
|---2----2----2----2----2----2----2----2-2--| 
|----2----2----2----2----2----2----2----2---| 
|--0----0----0----0----0----0----0----0-----| 
|-------------------------------------------| 
 
"I tried to quit...": 
 
|-------------------------0-----------------| 
|-----3----3----3----3--------------3-------| 
|---4----4----4----4----2----2-2--2----2-2--| 
|----4----4----4----4----5----5----5----5---| 
|--2----2----2----2----3----3----3----3-----| 
|-------------------------------------------| 
 
outro: 
  
|-----------------------5--| 
|-----------------------2--| 
|----2----2----2----2---2--| 
|---2-2--2-2--2-2--2-2--4--| 
|------------5----4-----2--| 
|--3----2------------------| 
 
 
I can't stop myself from callin' 
Callin' out your name 
I can't stop myself from fallin' 
Fallin' back again 
 
In the morning 
Baby in the afternoon 
 
Dark like the shady corners 
Inside a violin 
Hot like to burn my lips 
I know I can't win 
 
In the morning 
Baby in the afternoon 
 
I tried to quit you but I'm too weak 
Wakin' up without you I can hardly speak at all 
 
My girlfriend tried to help me 
To get you off my mind 
She tried a little tea and sympathy 
To get me to unwind 
 
In the morning 
Baby in the afternoon 
 
Funny how my favorite shirt 
Smells more like you than me 
Bitter traces left behind 
Stains that no one can see 
 
In the morning 
Baby in the afternoon 
 
You're gonna put me in an early grave 
I know I'm your slave whenever you call 
 
I can't stop myself from callin' 
Callin' out your name 
I can't stop myself from fallin' 
Fallin' back again 
 
Fallin' back again 
Fallin' back again 
Fallin' back again 
Fallin' back again... 
 
 
_______________________________________________________ 
Contribuição: Rafael Pereira da Silva(rafapresley1988@yahoo.com.br) 

	  

Request the video "In the morning"  -  Send "In the morning" Ringtone to your Cell

there isn't a video lesson for this song

request
Search
auto scroll beats size up size down change color hide chords drawings
tab show chords e-chords YouTube Clip e-chords hide all tabs e-chords go to top tab