Razorlight

In the morning

Razorlight

tabs

by  EUROPEU

save to print version add songbook text version e-mail correct tuner
chordsukulelecavacokeyboardtabbassdrumsharmonicaflute Guitar Pro
close

there isn't a video lesson for this song

chords

In the morning

	  		Intro 
 
   d   d   d   d   d  u  d  u  d  u   d  u  d  u 
 
e|-12--12--12--12--12-12-12-12-12-12--12-12-12-12-| 
b|-12--12--12--12--12-12-12-12-12-12--15-12-12-12-| 
g|-12--12--12--12--12-12-12-12-12-12--12-12-14-12-| 
d|-12--12--12--12--12-12-12-12-12-12--12-12-12-12-| 
a|-10--10--10--10--12-12-12-12-12-12--12-12-12-12-| 
e|------------------------------------------------| 
 
 
e|-7----------------------------------10-7-7--7-| 
b|-8----------------------------------8--8-10-8-| 
g|-9------same rhythm as before-------7--7-7--7-| 
d|-9----------------------------------9--9-9--9-| 
a|-7----------------------------------7--7-7--7-| 
e|----------------------------------------------| 
 
 
verse is mainly drums+bass with some little fidlly guitar bits, 
probably the same chords rippled 
 
 
little bass fill 
 
e|---------------------------------| 
b|---------------------------------| 
g|---------------------------------| 
d|---------------------------------| 
a|-----------------------------5-5-| 
e|-5--5--5-5-5-7-7-8--8--8-8-8-----| 
 
 
ending 
 
e|-7-7-7-7-7--10-7-7--7-| 
b|-8-8-8-8-8--8--8-10-8-| 
g|-9-9-9-9-7--7--7-7--7-|x2 
d|-9-9-9-9-9--9--9-9--9-| 
a|-7-7-7-7-7--7--7-7--7-| 
e|----------------------| 
 
e|-8--8--8--8--8--8--8--8--8----7-7-7-7-7-7-7-7-7| 
b|-8--8--8--8--8--8--8--8--8----7-7-7-7-7-7-7-7-7| 
g|-9--9--9--9--9--9--9--9--9----8-8-8-8-8-8-8-8-8| 
d|-10-10-10-10-10-10-10-10-10---7-7-7-7-7-7-7-7-7| 
a|-10-10-10-10-10-10-10-10-10---9-9-9-9-9-9-9-9-9| 
e|-8--8--8--8--8--8--8--8--8----7-7-7-7-7-7-7-7-7| 

		  

See also:

tabs Razorlight - rip it up tabs Razorlight - America (intro) tabs Blondie - The tide is high tabs Bowling For Soup - Girl All The Bad Guys Want tabs Bowling For Soup - My hometown tabs Bowling For Soup - The Bitch Song
e-chords

Other versions:

tabs Norah Jones - In the morning tabs Razorlight - In the morning
auto scroll beats size up size down change color hide chords drawings
tab show chords e-chords YouTube Clip e-chords hide all tabs e-chords go to top tab

share