Joe Pass

home > Joe Pass

Autumn Leaves Tab

Joe Pass

Difficulty: ExpertExpert

by alyslima

tuner correct add songbook print version text version save to e-mail
chordsukulelecavacokeyboardtabbassdrumsharmonicsflute Guitar Pro
chords

Autumn Leaves

  		

Transcrita por AldoAlain 

|-------8--------------------7-----2------------------5----------| 
|-5-7-8----x-5-x-4-------5-7-7--x--3-x---3--x----3-5--5-x-5-x-6--| 
|----------x-5-x-5-----7-----7--x--4-x---4--x--5------5-x--------| 
|----------x-5-x-4---0-------5--x--4-x---4--x---------4-x-8-x-7--| 
|----------------5---------------------2-3-----------------------| 
|------------5---------------------3-----------------------------| 

|-----7----5-------------------------12-10--8----7---------------| 
|--------------8--4-7p5------------------8--8------10-8-7--------| 
|-3h4-------------------4----------9-----9--9-------------9-7----| 
|-------------------------5-------------10--7--------------------| 
|-------6----7--------------7------------------0-----------------| 
|------------------------------0---------------------------------| 

|---------9/10----8---7----------------------8-7-5-7-------2-----| 
|-------------------------7-10-8-----------------5---5-----0-----| 
|-9p7p6-7---------8---7----------9---------------5---5---3-2-----| 
|--------------0----0---0----------9-7/5---------4---4-----------| 
|----------------------------------------3-----------------------| 
|------------------------------------------------------0-1-2-----| 

|-----2--5-3---0-------------------------------------------------| 
|-0------4-------4/5/6/7-5----------------------7----7-----7-----| 
|---3-2--4-----------------4---------------7-8-----------9----9--| 
|---2-1--4-------------------7-5------------------9----8----8----| 
|---3-2--------------------------7-------------------------------| 
|------------0---------------------7-3-0-------7----8------------| 

|-------------------------------------------------5-------5-----5| 
|-------------7--8-----8------8-----8-----8--7-8--------7-----6--| 
|---9---8---9--------7------6-----5-----4-------------6-----6----| 
|-----7------------9--------------------------------5------------| 
|---------------7---------7-----7-----7----------0---------------| 
|-7--------------------------------------------------------------| 

|-------5-------------10--------8-------7----6-7--8-8--5-5-2-----| 
|-----5------------------------------------------10--------------| 
|---5------7-8p7p6-7--------10----8-------7------------5---2-----| 
|-0----------------------10---------6-5----------------4---1-----| 
|--------------------9----------------------------9--------------| 
|------------------------------------------------------------/8-7| 

|-10-8----------7-----7-----3-4-----5-3/2-----2--3---------------| 
|--8-----8------------6------------3-------------1---5-4h5h7-5---| 
|--7-----7------5-----4-----4-----3-----------2--2-4-4---------4-| 
|--7-----9------4---0-------------------------1--1---5-----------| 
|------7-----0----6-----------------------3-2-2------------------| 
|----------6------------4-3------2-------------------------------| 

|-------------8-----8--------------7-----------------------------| 
|------5-7-8----5-5---5----3-5-7-----------5-----------3-3-5-5/10| 
|---------------5-----5----------------4-----4-----5-5-----------| 
|-5-------------7-6---5--0-----------5---3-----------------------| 
|---7------------------------------------------4-3---------------| 
|------------5-------------------3-------------------------------| 

|------------------------------5--------2h3h4h5-2-3--------------| 
|----------------------------------8----------------4h5h6h7-4h5--| 
|------10----9----8------4-4-------------------------------------| 
|---10----10---10------------------------------------------------| 
|-9--------------------------6---7-------------------------------| 
|-----------------7--6/7-------------0---------------------------| 

|-----------------8------------------------10----8-7----7-5------| 
|-----------5-7-8----5-7--5--------------------------------------| 
|-4-----0------------5----5---------9p7p6h7-----------7------5---| 
|---7p4--------------7-5--7-------0-------------0----------------| 
|----------------------------6-5---------------------------------| 
|---------0-------5----------------------------------------------| 

|---3-----------------6/7-5---------------------------2/3/4/5-5--| 
|-----6-5---1-3-5-7h8-------8-7-5--------------------------------| 
|-4-----0-0---------------5-------7-----7-6-----5---4------------| 
|-------------------------7---------5-4-----3-2------------------| 
|-------------------------------------------------6--------------| 
|----------------------------------------------------------------| 

|-3--0-----------------------------2-------2-----2---------------| 
|---------7p5----------------4-5---------3--------------7---8----| 
|-3-----------4------------------------3-----------2--9----------| 
|----2----------5p4------------------4---------------------------| 
|-------------------7------------------------3-2-----------------| 
|------0--------------7-3-0------2------------------------0------| 

|--------------------------------------------------10-8--7-------| 
|-----8---8---8----7-8---10---------------------------7--7-------| 
|---9---8---7---6--------------9----------0-----7-----8--7-------| 
|-9-------------------------10---9h10-7/4---4-0-------7--5-------| 
|----------------------0-----------------------------------------| 
|----------------------------------------------------------------| 

|---5p3-----2---------------6-7----8--8--------------------------| 
|-------3h4---5-3------------------10-----10-----7----5---4------| 
|-----------------4----------------9-----------9-----------------| 
|-0-----------------5-2-0----------10--------8----------7--------| 
|-------------------------------9--------------------------------| 
|---------------------------------------8----------7-------------| 

|-8-----7-------7-------7-------3-------5-------3---2-------3---0| 
|-----------8-------7-------6-----6-----------3---------1-0---4-5| 
|---------7-------6-------5---------4-------3---------2-------2-4| 
|-----------------------------------------2-------------------4-5| 
|---8-7-------6-------5---------------------------2-----------2--| 
|-----------------------------3-------2--------------------------| 

|-14-12--------------7-8-10-8/2------------2-3-5-7-5-------3-----| 
|-------12--5-7h8h10----------1--------3-5-----------0-----------| 
|--------------------------------2h4h5-----------------------2---| 
|------------------------0-----------------------------2-1-------| 
|----------------------------------------------------------------| 
|----------------------------------------------------------------| 

                         A 
|---0-------0---------0-12---------------------------------------| 
|---------0---0--------------------------------------------------| 
|-------0-------0------------------------------------------------| 
|-----4-----------4-2--------------------------------------------| 
|----------------------------------------------------------------| 
|-0--------------------------------------------------------------| 
	  

Full key step upFull key step up
Half key step upHalf key step up
Half key step downHalf key step down
Full key step downFull key step down
Search Paypal
auto scroll beats size up size down change color hide chords drawings
tab show chords e-chords YouTube Clip e-chords hide all tabs e-chords go to top tab