Muse

home > Muse > chords

Madness Tab

Muse

Difficulty: ExpertExpert

by marcnagel

tuner correct add songbook print version text version rtf version e-mail
chordsukulelecavacokeyboardtabbassdrumsharmonicsflute Guitar Pro
chords

Madness

	  

e|-----------------------| 
B|------13^--------------| 
G|-----------------------| 
D|-----------------------| 
A|-----------------------| 
E|-----------------------| 

e|-------------------------------------------------------------------| 
B|----------------13^---13--11--13~~~~---15p13p11h13p11--------------| 
G|------------15-----------------------------------------------------| 
D|----12--15---------------------------------------------------------| 
A|-------------------------------------------------------------------| 
E|-----------------------------------------------------------6(dive)-| 

e|-----------------------18-------18-------16-------16-| 
B|---13^--13--11---------------------------------------| 
G|-----------------12h13----12h13----12h13----12h13----| 
D|-----------------------------------------------------| 
A|-----------------------------------------------------| 
E|-----------------------------------------------------| 

e|--------15-------15-------13-------13-------------------------------| 
B|--------------------------------------------16-------16-------15\---| 
G|--12h13----12h13----12h13----12h13----12h13----12h13----12h13-------| 
D|--------------------------------------------------------------------| 
A|--------------------------------------------------------------------| 
E|--------------------------------------------------------------------| 

e|-----------------------| 
B|-------13--------------| 
G|-----------------------| 
D|----13----13-----------| 
A|-----------------------| 
E|--------------10~~~\---| 
	  

Request the video "Madness"  -  Send "Madness" Ringtone to your Cell

there isn't a video lesson for this song

request
Search
auto scroll beats size up size down change color hide chords drawings
tab show chords e-chords YouTube Clip e-chords hide all tabs e-chords go to top tab