Foo Fighters

home > Foo Fighte... > chords

Baby Hold On To Me Tab

Foo Fighters

Difficulty: BeginnerBeginner

tuner correct add songbook print version text version rtf version e-mail
chordsukulelecavacokeyboardtabbassdrumsharmonicsflute Guitar Pro
chords

Baby Hold On To Me

	  Riff 1 
e||--2----2----2--2--2----2----2--2--2--2--|| 
B||--3----3----3--3--3----3----3--3--3--3--|| 
G||--2----2----2--2--2----4----4--4--4--4--|| 
D||--0----0----0--0--0----4----4--4--4--4--|| 
A||--0----0----0--0--0----2----2--2--2--2--|| 
E||--0----0----0--0--0----2----2--2--2--2--|| 
 
 
Riff 2 
e||--2----2----2----2----3----3----3----3--|| 
B||--2----2----2----2----3----3----3----3--|| 
G||--2----2----2----2----4----4----4----4--|| 
D||--4----4----4----4----5----5----5----5--|| 
A||--4----4----4----4----5----5----5----5--|| 
E||--2----2----2----2----3----3----3----3--|| 
"Is it true you think these things are lies?"  
 
 
Riff 3 
e||--0--0--0--0--2--2--2--2--3--3--3--3--5--5--5--5--|| 
B||--0--0--0--0--2--2--2--2--3--3--3--3--5--5--5--5--|| 
G||--0--0--0--0--2--2--2--2--4--4--4--4--6--6--6--6--|| 
D||--2--2--2--2--4--4--4--4--5--5--5--5--7--7--7--7--|| 
A||--2--2--2--2--4--4--4--4--5--5--5--5--7--7--7--7--|| 
E||--0--0--0--0--2--2--2--2--3--3--3--3--5--5--5--5--|| 
"Think about it baby, im gonna take you to the top".  
 
 
*Song Progression* 
Riff 1 (11x) 
Riff 2 
Riff 3 
Riff 1 (7x) 
Riff 2 
Riff 3 
Riff 1 (3x) 
Riff 2 
Riff 3 (2x) 
Riff 1 ... 
 

	  

Request the video "Baby Hold On To Me"  -  Send "Baby Hold On To Me" Ringtone to your Cell

there isn't a video lesson for this song

request
Search
auto scroll beats size up size down change color hide chords drawings
tab show chords e-chords YouTube Clip e-chords hide all tabs e-chords go to top tab