Deep Purple

home > Deep Purple

Highway Star Tab

Deep Purple

Difficulty: AdvancedAdvanced

tuner correct add songbook print version text version rtf version e-mail
chordsukulelecavacokeyboardtabbassdrumsharmonicsflute Guitar Pro
chords

Highway Star

	  
Intro:  

e|--------------------------|-----------------|  
B|--------------------------|-----------------|  
G|-12-10-9--10--12-10-12-10-|-----------------|  
D|-12-10-10-10--12-10-12-10-|-----------------|  
A|--------------------------|-----------------|  
E|--------------------------|-3-3-3-3-3-3-3-3-|  

Part A:  

e|-----------------------------------------------------------------|  
B|-----------------------------------------------------------------|  
G|-------------------------------------------------------3---5---3-|  
D|------5-5-5-5-5-5-5-5-5-5-5-5-5-5-5-5-5-5-5-5-5-5-5-5--3-5-5-5-3-|  
A|-3-1--5-5-5-5-5-5-5-5-5-5-5-5-5-5-5-5-5-5-5-5-5-5-5-5----5---5---|  
E|-----------------------------------------------------------------|  

Part B: F5 E5 Eb5 D5  

Chorus:   

e|------------------------------------------------------|  
B|------------------------------------------------------|  
G|-5-5-----------5-5----------5-5-----------5-5---5-5---|  
D|-5-5-----------5-5----------5-5-----------5-5---5-5---|  
A|-----0-0-0-0-0-----0-0-0-0-0----0-0-0-0-0-----0-----0-|  
E|------------------------------------------------------|  

e|-----------------------------------------------------------------|  
B|-----------------------------------------------------------------|  
G|-5-5-----------5-5----------5---7---5---7---5---7---10---12---14-|  
D|-5-5-----------5-5----------5---7---5---7---5---7---10---12---14-|  
A|-----0-0-0-0-0-----0-0-0-0-0--0---0---0---0---0---0----0-----0---|  
E|-----------------------------------------------------------------|  

SOLO Keyboard: D5 A5 Ab5+ G5 Gb5+ F5 D5  

e|------------------------------|-------------------|  
B|------------------------------|-------------------|  
G|-------------10----12----10---|-----------5---5h7-|  
D|-12-12-12-12-10-12-12-12-10---|-------5-7---7-----|  
A|-12-12-12-12----12----12------|---5-8-------------|  
E|------------------------------|-8-----------------|  

Solo:  

e|--------------------------------12b13-12-10-----------------|  
B|------13b15------13b15-------10--------------13-------------|  
G|---10----------10-----10-/10--------------------10----12-10-|  
D|/12---------/12------------------------------------12-------|  
A|------------------------------------------------------------|  
E|------------------------------------------------------------| (2x)  

e|----------------------------------------------|  
B|-8b10-8b10~-8b10-8b10~-8b10-8-7-5-------------|  
G|----------------------------------5---7-5-----|  
D|------------------------------------7-----7-7-|  
A|----------------------------------------------|  
E|----------------------------------------------|  

e|--------------------------------------------------------------------------|  
B|-------------------------------------8b10-8b10-8b10-8b10-8b10-8b10-8b10~~-|  
G|----5-----5-----5---5-----5-----5-----------------------------------------|  
D|5-7---7-5---7-5---7---7-5---7-5---7---------------------------------------|  
A|--------------------------------------------------------------------------|  
E|--------------------------------------------------------------------------|  

e|-8b10-8-5-----8b10-8-5-----8b10-8-6-----8b10-8-6-----|  
B|----------6------------6------------8------------8---|  
G|------------7------------7------------7------------7-|  
D|-----------------------------------------------------|  
A|-----------------------------------------------------|  
E|-----------------------------------------------------|  

e|-10b12-10-8-----10b12-10-8------------------------------|  
B|------------8--------------8----10----11----12----13----|  
G|--------------9--------------9--12b14-13b14-14b16-15b17-|  
D|--------------------------------------------------------|  
A|--------------------------------------------------------|  
E|--------------------------------------------------------|  

e|-8b10-8-5-----8b10-8-5-----8b10-8b10-8-6-----8b10-8-6-----|  
B|----------6------------6-----------------8------------8---|  
G|------------7------------7-----------------7------------7-|  
D|----------------------------------------------------------|  
A|----------------------------------------------------------|  
E|----------------------------------------------------------|  

e|-10b12-10b12-10-8-----10b12-10-8------------------------------|  
B|------------------8--------------8----10----11----12----13----|  
G|--------------------9--------------9--12b14-13b14-14b16-15b17-|  
D|--------------------------------------------------------------|  
A|--------------------------------------------------------------|  
E|--------------------------------------------------------------|  

e|-5-6-8-8-|-6-8-10-10-|-8-10-12-12---|  
B|---------|-----------|--------------|  
G|---------|-----------|--------------|  
D|---------|-----------|--------------|  
A|---------|-----------|--------------|  
E|---------|-----------|--------------|  
       (8x)        (8x)            (8x)  

e|-17-17-0-0-15-14-0-0-14-13-0-0-13-12-0-0-12-11-0-0-11-10-0-0-10-9-0-0-9-8-0-0-|  
B|------------------------------------------------------------------------------|  
G|------------------------------------------------------------------------------|  
D|------------------------------------------------------------------------------|  
A|------------------------------------------------------------------------------|  
E|------------------------------------------------------------------------------|  

e|-5-6-8-8-|-6-8-10-10-|-8-10-12-12---|  
B|---------|-----------|--------------|  
G|---------|-----------|--------------|  
D|---------|-----------|--------------|  
A|---------|-----------|--------------|  
E|---------|-----------|--------------|  
       (8x)        (8x)            (8x)  

e|-17-17-0-0-15-14-0-0-14-13-0-0-13-12-0-0-12-11-0-0-11-10-0-0-10-9-0-0--|  
B|-----------------------------------------------------------------------|  
G|-----------------------------------------------------------------------|  
D|-----------------------------------------------------------------------|  
A|-----------------------------------------------------------------------|  
E|-----------------------------------------------------------------------|  

e|-9-8-0-0-12-11-0-0-11-10-0-0-10-9-0-0-9-8-0-0-8-7-0-0-7-6-0-0-6-5-0-0-|  
B|----------------------------------------------------------------------|  
G|----------------------------------------------------------------------|  
D|----------------------------------------------------------------------|  
A|----------------------------------------------------------------------|  
E|----------------------------------------------------------------------|  

e|-5-4-0-0-4-3-0-0-3-2-0-0-2-2-0-0-3-3-0-0-4-3-0-0-5-4-0-0-6-6-0-0-7-7-|  
B|---------------------------------------------------------------------|  
G|---------------------------------------------------------------------|  
D|---------------------------------------------------------------------|  
A|---------------------------------------------------------------------|  
E|---------------------------------------------------------------------|  

e|-0-0------5--------------------------5--------------------------|  
B|-----8b10---8-7-5---------------8b10---8-5-------------------5--|  
G|-----------------8-7-5---7-5---------------8-7-5---7-5-------5--|  
D|-----------------------7-----7-------------------7-----7-5-7----|  
A|----------------------------------------------------------------|  
E|----------------------------------------------------------------| 

	  

Request the video "Highway Star"  -  Send "Highway Star" Ringtone to your Cell

highway-star-by-deep-purple Play

there is a video lesson for this song

watch now

Full key step upFull key step up
Half key step upHalf key step up
Half key step downHalf key step down
Full key step downFull key step down
Search
auto scroll beats size up size down change color hide chords drawings
tab show chords e-chords YouTube Clip e-chords hide all tabs e-chords go to top tab