Dave Brubeck

home > Dave Brube... > chords

Take Five Tab

Dave Brubeck

Difficulty: ExpertExpert

by Nick D

tuner correct add songbook print version text version rtf version e-mail
chordsukulelecavacokeyboardtabbassdrumsharmonicsflute Guitar Pro
chords

Take Five

Year: 1963 - Album: For All Time

	  Bbm7       Ebm          Bbm7     Ebm        Bbm7     Ebm         Bbm7   Ebm 
e---------|--------------------|--------------------|-------------------|---| 
B-----7-9-|10-11-10-9-7--------|----------6h7p6-----|-------------------|---| 
G---8-----|------------------6-|-8--------------8-6-|-8--------6h86-----|---| 
D-8-------|---------------8----|--------------------|---------------8-6-|-8-| 
A---------|--------------------|--------------------|-------------------|---| 
E---------|--------------------|--------------------|-------------------|---| 

The last bar above is the same bar as the first below. It's a bit confusing. 

 Bbm7       Ebm          Bbm7     Ebm        Bbm7     Ebm         Bbm7   Ebm 
e---------|--------------------|--------------------|-------------------|---| 
B-----7-9-|10-11-10-9-7--------|--------------------|---------6h7p6-----|---| 
G---8-----|------------------6-|-8--------6h8p8-----|---------------8-6-|-8-| 
D-8-------|---------------8----|----------------8-6-|-8-----------------|---| 
A---------|--------------------|--------------------|-------------------|---| 
E---------|--------------------|---------------|----|-------------------|---| 

    Bmaj7           ?         Bbm7           Ebm 
e-|-11-14-11----------------|----13-------------------| 
B-|----------12----11-12-13-|-14----14-11-------10-11-| 
G-|-------------13----------|-------------11-13-------| 
D-|-------------------------|-------------------------| 
A-|-------------------------|-------------------------| 
E-|-------------------------|-------------------------| 

    Abm7             Db7      Gbmaj7 
e-|----11--------------------|-----------------------------| 
B-|-12----12-------------10--|-11--10-11-12-14-14-13-14-15-| 
G-|----------13-10-11-13-----|-----------------------------| 
D-|--------------------------|-----------------------------| 
A-|--------------------------|-----------------------------| 
E-|--------------------------|-----------------------------| 


    Bmaj7           ?         Bbm7           Ebm 
e-|-11-14-11----------------|----13-------------------| 
B-|----------12----11-12-13-|-14----14-11-------10-11-| 
G-|-------------13----------|-------------11-13-------| 
D-|-------------------------|-------------------------| 
A-|-------------------------|-------------------------| 
E-|-------------------------|-------------------------| 


    Abm7             Db7      Fm7      Bb7 
e-|----11-------------------|-----------------| 
B-|-12----12----------14-12-|-11----------7-9-| 
G-|----------13-10-13-------|-----------8-----| 
D-|-------------------------|---------8-------| 
A-|-------------------------|-----------------| 
E-|-------------------------|-----------------| 

    Ebm       Bbm7    Ebm        Bbm7      Ebm         Bbm7    Ebm   Bbm7 
e-|-----------------|--------------------|--------------------|-------------| 
B-|-10-11-9-7-------|----------6h7p6-----|--------------------|---------7-9-| 
G-|---------------6-|-8--------------8-6-|-8--------6h8p6-----|-------8-----| 
D-|-------------8---|--------------------|----------------8-6-|-8---8-------| 
A-|-----------------|--------------------|--------------------|-------------| 
E-|-----------------|------------------- |--------------------|-------------| 

    Ebm       Bbm7   Ebm        Bbm7      Ebm          Bbm7    Ebm 
e-|----------------|--------------------|--------------------|--------------| 
B-|-10-11-9-7------|--------------------|----------6h7p6-----|--------------| 
G-|--------------6-|-8--------6h8p6-----|----------------8-6-|-8------------| 
D-|------------8---|----------------8-6-|-8------------------|--------------| 
A-|----------------|--------------------|--------------------|--------------| 
E-|----------------|--------------------|--------------------|--------------| 



	  

Request the video "Take Five"  -  Send "Take Five" Ringtone to your Cell

there isn't a video lesson for this song

request
Full key step upFull key step up
Half key step upHalf key step up
Half key step downHalf key step down
Full key step downFull key step down
Search
auto scroll beats size up size down change color hide chords drawings
tab show chords e-chords YouTube Clip e-chords hide all tabs e-chords go to top tab