George Benson

home > George Benson

Take Five Tab

George Benson

Difficulty: nolevelnolevel

by aleffederico

tuner correct add songbook print version text version save to e-mail
chordsukulelecavacokeyboardtabbassdrumsharmonicsflute Guitar Pro
chords

Take Five

  		
e|---------------------------------------------------------------------| 
B|-------------9--10--11p10--9-----------------------------------------| 
G|-----8--11---------------------11----------8-------------------------| 
D|-/8---------------------------------8--11----------------------------| 
A|---------------------------------------------------------------------| 
E|---------------------------------------------------------------------| 

e|------------------------------------------------------------------------| 
B|------------------------------------------------------------------------| 
G|-10 h 11 p 10 p 8-------8------------------6 h 8 p 6--------------------| 
D|------------------11--------------------------------------8--6--8-------| 
A|------------------------------------------------------------------------| 
E|------------------------------------------------------------------------| 


e|---------------------------------------------------------------------| 
B|-------------9--10--11p10--9-----------------------------------------| 
G|-----8--11---------------------11----------8-------------------------| 
D|-8---------------------------------8--11-----------------------------| 
A|---------------------------------------------------------------------| 
E|---------------------------------------------------------------------| 


e|------------------------------------------------------------------------| 
B|------------------------------------------------------------------------| 
G|-6 h 8 p 6-------------------------10 h 11 p 10 p 8-------8-------------| 
D|------------8--6--8---------------------------------11------------------| 
A|------------------------------------------------------------------------| 
E|------------------------------------------------------------------------| 

e|-/11--14--11---------------------------------13----9----------------| 
B|-----------------12-------11 h 12--13--14------------11-------------| 
G|----------------------13--------------------------------------------| 
D|--------------------------------------------------------------------| 
A|--------------------------------------------------------------------| 
E|--------------------------------------------------------------------| 

e|------------------------11-----7--------------------------------------| 
B|------9 h 10-11-12--------------9-------------------------------------| 
G|-11-------------------------------------------------------------------| 
D|----------------------------------------------------------------------| 
A|----------------------------------------------------------------------| 
E|----------------------------------------------------------------------| 

e|---------------------------------------------------------------------| 
B|-----------9--10 h 11--10 h 11--7--9-------9--8--9-10----------------| 
G|-10--11--------------------------------------------------------------| 
D|---------------------------------------------------------------------| 
A|---------------------------------------------------------------------| 
E|---------------------------------------------------------------------| 


e|-/11--14--11---------------------------------13----9----------------| 
B|-----------------12-------11 h 12--13--14------------11-------------| 
G|----------------------13--------------------------------------------| 
D|--------------------------------------------------------------------| 
A|--------------------------------------------------------------------| 
E|--------------------------------------------------------------------| 


e|------------------------11-----7-------------------------------------| 
B|------9 h 10-11-12--------------9------------------------------------| 
G|-11------------------------------------------------------------------| 
D|---------------------------------------------------------------------| 
A|---------------------------------------------------------------------| 
E|---------------------------------------------------------------------| 

e|-------9--7--6-----------| 
B|-6--9--------------------| 
G|-------------------------| 
D|-------------------------| 
A|-------------------------| 
E|-------------------------| 


e|---------------------------------------------------------------------| 
B|-------------9--10--11p10--9-----------------------------------------| 
G|-----8--11---------------------11----------8-------------------------| 
D|-8---------------------------------8--11-----------------------------| 
A|---------------------------------------------------------------------| 
E|---------------------------------------------------------------------| 

e|------------------------------------------------------------------------| 
B|------------------------------------------------------------------------| 
G|-10 h 11 p 10 p 8-------8------------------6 h 8 p 6--------------------| 
D|------------------11--------------------------------------8--6--8-------| 
A|------------------------------------------------------------------------| 
E|------------------------------------------------------------------------| 


e|---------------------------------------------------------------------| 
B|-------------9--10--11p10--9-----------------------------------------| 
G|-----8--11---------------------11----------8-------------------------| 
D|-8---------------------------------8--11-----------------------------| 
A|---------------------------------------------------------------------| 
E|---------------------------------------------------------------------| 


e|------------------------------------------------------------------------| 
B|------------------------------------------------------------------------| 
G|-6 h 8 p 6-------------------------10 h 11 p 10 p 8-------8-------------| 
D|------------8--6--8---------------------------------11------------------| 
A|------------------------------------------------------------------------| 
E|------------------------------------------------------------------------| 
	  

Search Paypal
auto scroll beats size up size down change color hide chords drawings
tab show chords e-chords YouTube Clip e-chords hide all tabs e-chords go to top tab