Black Sabbath

home > Black Sabb... > chords

Methademic Tab

Black Sabbath

Difficulty: ExpertExpert

by VsWorld

tuner correct add songbook print version text version rtf version e-mail
chordsukulelecavacokeyboardtabbassdrumsharmonicsflute Guitar Pro
chords

Methademic

	  

 Tuning: Eb Ab Db Gb Bb Eb 







                                                 _ 
----------------------------0-------------------/ \---------------------| 
----------0---------------0---------------0-1--0-1-0---------------0----| 
--------0---------------0---------------2------------2-----------0------| 
------2---------------2---------------2----------------2-------2--------| 
----2-----------2--1------------1~~-0------------------------2----------| 
-0--------------------------------------------------------0-------------| 

                                                 _ 
----------------------------0-------------------/ \---------------------| 
----------0---------------0---------------0-1--0-1-0---------------0----| 
--------0---------------0---------------2------------2-----------0------| 
------2---------------2---------------2----------------2-------2--------| 
----2-----------2--1------------1~~-0------------------------2----------| 
-0--------------------------------------------------------0-------------| 



-----------0------------------0-2--------0------| 
---------0----0-------------3-----3------0------| 
-------0---------0--------2---------2----0------| 
-----2--------------2--0--------------0--2------| 
-/3--------------------------------------2------| 
-----------------------------------------0------| 





0:34 

--------------------------------------------------------------| 
--------------------------------------------------------------| 
--------------------------------------------------------------| 
-----------------------------------------------------------5--| 
-----------------------------------------------------3--4--3--| 
-0--0-2-0-1-0-3--0--0-2-0-1-0-3--0---0-2-0-1-0-3--0--1--2-----| 


--------------------------------------------------------------| 
--------------------------------------------------------------| 
--------------------------------------------------------------| 
--------------------------------------------------------------| 
-----------------------------------------------------5--4--3--| 
-0--0-2-0-1-0-3--0--0-2-0-1-0-3--0---0-2-0-1-0-3--0--3--2--1--| 


--------------------------------------------------------------| 
--------------------------------------------------------------| 
--------------------------------------------------------------| 
-----------------------------------------------------------5--| 
-----------------------------------------------------3--4--3--| 
-0--0-2-0-1-0-3--0--0-2-0-1-0-3--0---0-2-0-1-0-3--0--1--2-----| 


----------------------------------------------------------------| 
----------------------------------------------------------------| 
----------------------------------------------------------------| 
-----------------------------------------------------4--5--7--9-| 
-----------------------------------------------------2--3--5--7-| 
-0--0-2-0-1-0-3--0--0-2-0-1-0-3--0---0-2-0-1-0-3--0-------------| 





1:04 


------------0--------------0--------------0---------------0------| 
----------0--------------0--------------0---------------0--------| 
--------0--------------0--------------0--------------0-----------| 
------2--------------5--------------2--------------8-------------| 
----2--------------5--------------2--------------7---------------| 
-0--------------0--------------0--------------0------------------| 


------------0--------------0--------------0----------------0-----| 
----------0--------------0--------------0----------------0-------| 
--------0--------------0--------------0---------------0----------| 
------2--------------5--------------2---------------8------------| 
----2--------------5--------------2--------------7---------------| 
-0--------------0--------------0--------------0------------------| 






1:28 

---------------------------------------------------------------------| 
---------------------------------------------------------------------| 
---------------------------------------------------------------------| 
---------------3--------------------------------3--------------------| 
-----5-4---4-5-1------5-4---4-5-4-----5-4---4-5-1------5-4---4-5-4---| 
-0---3-2-0-2-3----0---3-2-0-2-3-2-0---3-2-0-2-3----0---3-2-0-2-3-2---| 



---------------------------------------------------------------------| 
---------------------------------------------------------------------| 
---------------------------------------------------------------------| 
---------------3--------------------------------3--------------------| 
-----5-4---4-5-1------5-4---4-5-4-----5-4---4-5-1------5-4---4-5-4---| 
-0---3-2-0-2-3----0---3-2-0-2-3-2-0---3-2-0-2-3----0---3-2-0-2-3-2---| 




1:40 


------------0--------------0--------------0---------------0------| 
----------0--------------0--------------0---------------0--------| 
--------0--------------0--------------0--------------0-----------| 
------2--------------5--------------2--------------8-------------| 
----2--------------5--------------2--------------7---------------| 
-0--------------0--------------0--------------0------------------| 


------------0--------------0--------------0----------------0-----| 
----------0--------------0--------------0----------------0-------| 
--------0--------------0--------------0---------------0----------| 
------2--------------5--------------2---------------8------------| 
----2--------------5--------------2--------------7---------------| 
-0--------------0--------------0--------------0------------------| 





2:05 

---------------------------------------------------------------------| 
---------------------------------------------------------------------| 
---------------------------------------------------------------------| 
---------------3--------------------------------3--------------------| 
-----5-4---4-5-1------5-4---4-5-4-----5-4---4-5-1------5-4---4-5-4---| 
-0---3-2-0-2-3----0---3-2-0-2-3-2-0---3-2-0-2-3----0---3-2-0-2-3-2---| 





2:12 

------------------------------------------| 
---------6--------------------------------| 
---------5--------------------------------| 
-2-------------7--------------------------| 
-0-------------5----------5-------5-------| 
------------------------X-3~----X-3~---X--| 
                        *       *      * 

------------------------------------------| 
---------6--------------------------------| 
---------5--------------------------------| 
-2-------------7----------5-------5-------| 
-0-------------5----------3~------3~------| 
------------------------X-------X------X--| 
                        *       *      * 

------------------------------------------| 
---------6--------------------------------| 
---------5--------------------------------| 
-2-------------7--------------------------| 
-0-------------5----------5-------5-------| 
------------------------X-3~----X-3~---X--| 
                        *       *      * 

------------------------------------------| 
---------6-----8--------------------------| 
---------5-----7--------------------------| 
-2------------------------5-------5-------| 
-0------------------------3~------3~------| 
------------------------X-------X------X--| 
                        *       *      * 




2:35 

-----------------------------------------------------------------| 
-----------------------------------------------------------------| 
-----------------------------------------------------------------| 
-----------------------------------------------------------------| 
-----------------------------------------------------------------| 
-0--0-2-0-1-0-3--0--0-2-0-1-0-3--0--0-2-0-1-0-3--0--0-2-0-1-0-3--| 


-----------------------------------------------------------------| 
-----------------------------------------------------------------| 
-----------------------------------------------------------------| 
-----------------------------------------------------------------| 
-----------------------------------------------------------------| 
-0--0-2-0-1-0-3--0--0-2-0-1-0-3--0--0-2-0-1-0-3--0--0-2-0-1-0-3--| 




2:47 

---------------------------------------------------------------------| 
---------------------------------------------------------------------| 
-4--------3----------------------------------------------------------| 
-2--------2---------2----------2-------------------------------------| 
-0--------0---------0----------0-------------------------------------| 
-0------0-0-----------------------3~--0--0-2-0-1-0-3--0--0-2-0-1-0-3-| 
        * 

---------------------------------------------------------------------| 
---------------------------------------------------------------------| 
-4--------3----------------------------------------------------------| 
-2--------2---------2----------2-------------------------------------| 
-0--------0---------0----------0-------------------------------------| 
-0------0-0-----------------------3~--0--0-2-0-1-0-3--0--0-2-0-1-0-3-| 
        * 

----------------------------------| 
----------------------------------| 
----------------------------------| 
----------------------------------| 
----------------------------------| 
-0--0-2-0-1-0-3--0--0-2-0-1-0-3---| 




3:15 


------------------------------------------| 
---------6--------------------------------| 
---------5--------------------------------| 
-2-------------7--------------------------| 
-0-------------5----------5-------5-------| 
------------------------X-3~----X-3~---X--| 
                        *       *      * 

------------------------------------------| 
---------6--------------------------------| 
---------5--------------------------------| 
-2-------------7----------5-------5-------| 
-0-------------5----------3~------3~------| 
------------------------X-------X------X--| 
                        *       *      * 

------------------------------------------| 
---------6--------------------------------| 
---------5--------------------------------| 
-2-------------7--------------------------| 
-0-------------5----------5-------5-------| 
------------------------X-3~----X-3~---X--| 
                        *       *      * 

------------------------------------------| 
---------6-----8--------------------------| 
---------5-----7--------------------------| 
-2------------------------5-------5-------| 
-0------------------------3~------3~------| 
------------------------X-------X------X--| 
                        *       *      * 



3:38 

---------------------------------------------------------------| 
---------------------------------------------------------------| 
---------------------------------------------------------------| 
---------------------------------------------------------------| 
-----7-6-5-----------7-6-5-----------7-6-5-------5-----7-------| 
-0---------7-6-5-0---------7-6-5-0---------7-6-5-3---0-5---0---| 
                                                     *     * 

----------------------------------------------------------------| 
-----------------------------------------------------------_----| 
----------------------------------------------------------/ \---| 
---------------------------------------------------------7-8-7--| 
-----7-6-5-----------7-6-5-----------7-6-5-------5-------5/6\5--| 
-0---------7-6-5-0---------7-6-5-0---------7-6-5-3---0----------| 
                                                     *      




3:50 

SOLO      ~~~~~~__ 
      )   )     |(                                            
----15--15-----15--13----13--15-17-13~~~----------13-----------| 
-15-------------------15-----------------15-13-15----15~~~\----| 
---------------------------------------------------------------| 
---------------------------------------------------------------| 
---------------------------------------------------------------| 
---------------------------------------------------------------| 


     
3:57 

---_-------------------------------------------------| 
--|(-------------------------------------------------| 
-17--14-17-14----14----12--12--------12---)----------| 
--------------15----15---------15-12----15--12-12~~--| 
-----------------------------------------------------| 
-----------------------------------------------------| 
                         |   | 

-----------------------------------------| 
-----------------------------------------| 
-------PH-PH-----------------------------| 
-10----12-12-10----10-10-----------------| 
----12----------12-------10~-8-10-8-5~~--| 
-----------------------------------------| 



4:02 

                           ~~~~~~~~~^    ~~~~~~ 
------------------------)--)-------(-----)------------------| 
-------------------6---8--8----------6--6-------------------| 
-------------5-7-7---7--------------------------7~~~--------| 
-----5---5-7------------------------------------------------| 
-8-5---8----------------------------------------------------| 
------------------------------------------------------------| 


                                       2 STEP 
-----------------------------------------___-----~~~~~~~~---| 
-----13--13--13~~--------15--15--15~~----)--(---)-----------| 
-/14---------------/14-----------------15-----15------------| 
------------------------------------------------------------| 
------------------------------------------------------------| 
------------------------------------------------------------| 
    |  |   |          |    |   |         




4:19 


---------------------------------------------------------------------| 
---------------------------------------------------------------------| 
---------------------------------------------------------------------| 
---------------3--------------------------------3--------------------| 
-----5-4---4-5-1------5-4---4-5-4-----5-4---4-5-1------5-4---4-5-4---| 
-0---3-2-0-2-3----0---3-2-0-2-3-2-0---3-2-0-2-3----0---3-2-0-2-3-2---| 


---------------------------------------------------------------------| 
---------------------------------------------------------------------| 
---------------------------------------------------------------------| 
---------------3--------------------------------3--------------------| 
-----5-4---4-5-1------5-4---4-5-4-----5-4---4-5-1------5-4---4-5-4---| 
-0---3-2-0-2-3----0---3-2-0-2-3-2-0---3-2-0-2-3----0---3-2-0-2-3-2---| 



---------------------------------------------------------------------| 
---------------------------------------------------------------------| 
---------------------------------------------------------------------| 
---------------3--------------------------------3--------------------| 
-----5-4---4-5-1------5-4---4-5-4-----5-4---4-5-1------5-4---4-5-4---| 
-0---3-2-0-2-3----0---3-2-0-2-3-2-0---3-2-0-2-3----0---3-2-0-2-3-2---| 


---------------------------------------------------------------------| 
---------------------------------------------------------------------| 
---------------------------------------------------------------------| 
---------------3--------------------------------3--------------------| 
-----5-4---4-5-1------5-4---4-5-4-----5-4---4-5-1------5-4---4-5-4---| 
-0---3-2-0-2-3----0---3-2-0-2-3-2-0---3-2-0-2-3----0---3-2-0-2-3-2---| 


---------------------------------------------------------------------| 
---------------------------------------------------------------------| 
---------------------------------------------------------------------| 
---------------3--------------------------------3--------------------| 
-----5-4---4-5-1------5-4---4-5-4-----5-4---4-5-1------5-4---4-5-4---| 
-0---3-2-0-2-3----0---3-2-0-2-3-2-0---3-2-0-2-3----0---3-2-0-2-3-2---| 






4:49 

----------------------------------------------------------| 
----------------------------------------------------------| 
----------------------------------------------------------| 
----------------------------------------------------------| 
----/7--3--2~-3--2--3-2--------/7--3--2--3--2-1---1-------| 
-0----------------------3-2-0-------------------3---3-2---| 



GT1 
----------------------------------------------------------| 
----------------------------------------------------------| 
----------------------------------------------------------| 
----------------------------------------------------------| 
----/7--3--2~-3--2--3-2--------/7--3--2--3--2-1---1-------| 
-0----------------------3-2-0-------------------3---3-2---| 

GT2 
------------------------------------------------------------------| 
------------------------------------------------------------------| 
------------------------------------------------------------------| 
--/14--10--9~--10--9--10-9--------/14--10--9--10--9-8----8--------| 
---------------------------10-9-7---------------------10---10-9-7-| 
0-----------------------------------------------------------------| 






---------------------------------------------------------------------| 
---------------------------------------------------------------------| 
---------------------------------------------------------------------| 
---------------3--------------------------------3--------------------| 
-----5-4---4-5-1------5-4---4-5-4-----5-4---4-5-1------5-4---4-5-4---| 
-0---3-2-0-2-3----0---3-2-0-2-3-2-0---3-2-0-2-3----0---3-2-0-2-3-2---| 


---------------------------------------------------------------------| 
---------------------------------------------------------------------| 
---------------------------------------------------------------------| 
---------------3--------------------------------3--------------------| 
-----5-4---4-5-1------5-4---4-5-4-----5-4---4-5-1------5-4---4-5-4---| 
-0---3-2-0-2-3----0---3-2-0-2-3-2-0---3-2-0-2-3----0---3-2-0-2-3-2---| 



---------------------------------------------------------------------| 
---------------------------------------------------------------------| 
---------------------------------------------------------------------| 
---------------3--------------------------------3--------------------| 
-----5-4---4-5-1------5-4---4-5-4-----5-4---4-5-1------5-4---4-5-4---| 
-0---3-2-0-2-3----0---3-2-0-2-3-2-0---3-2-0-2-3----0---3-2-0-2-3-2---| 


---------------------------------------------------------------------| 
---------------------------------------------------------------------| 
---------------------------------------------------------------------| 
---------------3--------------------------------3--------------------| 
-----5-4---4-5-1------5-4---4-5-4-----5-4---4-5-1------5-4---4-5-4---| 
-0---3-2-0-2-3----0---3-2-0-2-3-2-0---3-2-0-2-3----0---3-2-0-2-3-2---| 


---------------------------------------------------------------------| 
---------------------------------------------------------------------| 
---------------------------------------------------------------------| 
---------------3--------------------------------3--------------------| 
-----5-4---4-5-1------5-4---4-5-4-----5-4---4-5-1------5-4---4-5-4---| 
-0---3-2-0-2-3----0---3-2-0-2-3-2-0---3-2-0-2-3----0---3-2-0-2-3-2---| 



---------------------------------------------------------------------| 
---------------------------------------------------------------------| 
---------------------------------------------------------------------| 
---------------3--------------------------------3--------------------| 
-----5-4---4-5-1------5-4---4-5-4-----5-4---4-5-1------5-4---4-5-4---| 
-0---3-2-0-2-3----0---3-2-0-2-3-2-0---3-2-0-2-3----0---3-2-0-2-3-2---| 


----------------------------------------------------------------------| 
----------------------------------------------------------------------| 
----------------------------------------------------------------------| 
---------------3--------------------------------3---------------------| 
-----5-4---4-5-1------5-4---4-5-4-----5-4---4-5-1------5-4---4-5-4-2--| 
-0---3-2-0-2-3----0---3-2-0-2-3-2-0---3-2-0-2-3----0---3-2-0-2-3-2-0--| 
	  

Request the video "Methademic"  -  Send "Methademic" Ringtone to your Cell

there isn't a video lesson for this song

request
e-chords
Search
auto scroll beats size up size down change color hide chords drawings
tab show chords e-chords YouTube Clip e-chords hide all tabs e-chords go to top tab