Ozzy Osbourne

home > Ozzy Osbourne

Mr. Crowley Tab

Ozzy Osbourne

Difficulty: ExpertExpert

by diewithme

tuner correct add songbook print version text version save to e-mail
chordsukulelecavacokeyboardtabbassdrummharmonicsflute Guitar Pro
chords

Mr. Crowley

Year: 1980 - Album: Prince of Darkness

	  

 Introdução


 e|-------------------------------------------------------------|
 B|-------------------------------------------------------------|
 G|------------------------------------------------7-9----------|
 D|-------5-7-----7-5---5-7-9-10------10-9-7--9-10------9-------|
 A|-5-7-8-----7-------8----------10------------------------7----|
 E|-------------5-------------------8---------------------------|


 e|-------------------------------------------------------------|
 B|-------------------------------------------------------------|
 G|-------------------------------------------------------------|
 D|-7-8---5-------7---------------------------------------------|
 A|-----8---8-7-8---8-7-----------------------------------------|
 E|-------------------------------------------------------------|


 e|-------------------------------------------------------------|
 B|-------------------------------------------------------------|
 G|------------------------------------------------7-9----------|
 D|-------5-7-----7-5---5-7-9-10------10-9-7--9-10------9-------|
 A|-5-7-8-----7-------8----------10------------------------7----|
 E|-------------5-------------------8---------------------------|


 e|-------------------------------------------------------------|
 B|-------------------------------------------------------------|
 G|-------------------------------------------------------------|
 D|-7-8---5-------7---------------------------------------------|
 A|-----8---8-7-8-----------------------------------------------|
 E|-------------------------------------------------------------| 

 Verso 1


 e|-------------------------------------------------------------|
 B|-------------------------------------------------------------|
 G|-------------------------------------------------------------|
 D|---7-----7---3----3--3----------3----3-----7----------3------|
 A|-/-5-0---5-/-1-xx-1--1--1-3-1-0-1-xx-1--3--5-0---5-/--1-x--x-|
 E|-------1---------------------------------------1-------------|


 e|-------------------------------------------------------------|
 B|-------------------------------------------------------------|
 G|-------------------------------------------------------------|
 D|-3--3----------3----3-3-3-5----5-5----5-5-5----5--5--7-------|
 A|-1--1--1-3-1-0-1-xx-1-1-1-3-xx-3-3-xx-3-3-3-xx-3--3--5---xx--|
 E|-------------------------------------------------------------|
 

 e|-------------------------------------------------------------|
 B|----------5-6-5-6/8-6----------------------------------------|
 G|----------5-7-5-7/9-7----------------------------------------|
 D|-7-7-7----------------5----5-5----5-5-5----5-5-3-3-3-3-2-----|
 A|-5-5-5\-0-------------3-xx-3-3-xx-3-3-3-xx-3-3-1-1-1-1-0(AL)-|
 E|-------------------------------------------------------------|





 Verso 2
    
 e|-------------------------------------------------------------|
 B|-------------------------------------------------------------|
 G|--------------------------------------------------7----------|
 D|-7---------3----3--3----------3----3-----7------------3------|
 A|-5-0---5-/-1-xx-1--1--1-3-1-0-1-xx-1--3--5-0---5----/-1-XX---|
 E|-----1---------------------------------------1---------------|


 e|-------------------------------------------------------------|
 B|---------------------------------------------6p5h6p5h6p5h6p5h|
 G|---------------------------------------------7p5h7p5h7p5h7p5h|
 D|-3--3-----------3------3-3-3-5----5-5----5-5-----------------|
 A|-1--1--1-3-1-0--1--xx--1-1-1-3-xx-3-3-xx-3-3-----------------|
 E|-------------------------------------------------------------|



 e|-------------------------------------------------------------|
 B|-6p5h6p5------------3h4p3---3--------------------------------|
 G|-7p5h7p5------------------5---5-3p2-3p2----------------------|
 D|---------7----7-7-7---------------------5-3-5-3-2------------|
 A|---------5-xx-5-5-5-------------------------------5-3--xx----|
 E|-------------------------------------------------------------|



 e|-------------------------------------------------------------|
 B|-------------------------------------------------------------|
 G|-------------------------------------------------------------|
 D|-5-5----5-5-5----5--5--3--3--3--3---2------------------------|
 A|-3-3-xx-3-3-3-xx-3--3--1--1--1--1---0(AL)--------------------|
 E|-------------------------------------------------------------|





 solo 1


 e|----------10----------------10----------------10-------------|
 B|-------10----13p10-------10----13p10-------10----13p10-------|
 G|-12b14-------------12b14-------------12b14-------------12b14-|
 D|-------------------------------------------------------------|
 A|-------------------------------------------------------------|
 E|-------------------------------------------------------------|



 e|----10----10-13p10----10-------------------------------------|
 B|-10----13----------13----13-10-13p10----10-------------------|
 G|-------------------------------------12----12-10-12p10-----10|
 D|--------------------------------------------------------12---|
 A|-------------------------------------------------------------|
 E|-------------------------------------------------------------|



 e|----------------------------------------------------13-12-10-|
 B|----------------------------------10----10-13-10-13----------|
 G|----------------10----10-12-10-12----12----------------------|
 D|-12-10-12-10-12----12----------------------------------------|
 A|-------------------------------------------------------------|
 E|-------------------------------------------------------------|



 e|-14-13-11--15-14-12--18-17-15--20-18-17--20b22--20b22r20-----|
 B|-------------------------------------------------------------|
 G|-------------------------------------------------------------|
 D|-------------------------------------------------------------|
 A|-------------------------------------------------------------|
 E|-------------------------------------------------------------|



 e|-17h18-20-18-17----17-----------------------17h18-20p18p17---|
 B|----------------20----20-18p17h18h20-18-17-------------------|
 G|-------------------------------------------------------------|
 D|-------------------------------------------------------------|
 A|-------------------------------------------------------------|
 E|-------------------------------------------------------------|



 e|-------------------------------------------------------------|
 B|-20-18p17h18h20----17----------------------------------------|
 G|----------------19----19p1719p17----17-----------------------|
 D|---------------------------------19----19p1719p17----15------|
 A|--------------------------------------------------17----17---|
 E|-------------------------------------------------------------|



 e|-20b22r20--17h18h20p18p17----17------------------------------|
 B|--------------------------20----20-18p17-18h20-18p17h18p17---|
 G|-------------------------------------------------------------|
 D|-------------------------------------------------------------|
 A|-------------------------------------------------------------|
 E|-------------------------------------------------------------|



 e|--------------------20--13p10----10-------13p10----10--------|
 B|-18p17h18p17--20b22-----------13----13p10-------13----13p10--|
 G|-------------------------------------------------------------|
 D|-------------------------------------------------------------|
 A|-------------------------------------------------------------|
 E|-------------------------------------------------------------|



 e|-13p10----10-------13p10----10--------13p10----10------------|
 B|-------13----13p10-------13----13p10--------13----13p10------|
 G|-------------------------------------------------------------|
 D|-------------------------------------------------------------|
 A|-------------------------------------------------------------|
 E|-------------------------------------------------------------|



 e|-13p10----10-------13p10----10--------13p10----10------------|
 B|-------13----13p10-------13----13p10--------13----13p10------|
 G|-------------------------------------------------------------|
 D|-------------------------------------------------------------|
 A|-------------------------------------------------------------|
 E|-------------------------------------------------------------|



 e|-13p10----10------------------------------------------------5|
 B|-------13----13p10-13p10----10----------------------------5--|
 G|-------------------------12----12-10-12-10-9-10-9-7-9-7-5----|
 D|-------------------------------------------------------------|
 A|-------------------------------------------------------------|
 E|-------------------------------------------------------------|



 e|------8------------------------------------------------------|
 B|-8b10---8b10--8b10--10p8-------6p5---------------------------|
 G|-------------------------9---------7-5-----------------------|
 D|---------------------------7-5---------7-6p5---5-----------5-|
 A|---------------------------------------------8---8-7-5-7-8---|
 E|-------------------------------------------------------------|



 e|-------------------------------------------------------------|
 B|-------------------------------------------------------------|
 G|-------------------------------------------------------------|
 D|--------------7----------------------------------------------|
 A|-8-7--5-4-5-7---0(AL)----------------------------------------|
 E|-------------------------------------------------------------|




 verso 3



 e|-------------------------------------------------------------|
 B|-------------------------------------------------------------|
 G|---------7----------------------------------------o(HA)------|
 D|-7----------3----3--3----------3----3-----7-------o(HA)--3---|
 A|-5-0---5--/-1-xx-1--1--1-3-1-0-1-xx-1--3--5-0---5------/-1-XX|
 E|-----1----------------------------------------1--------------|



 e|-------------------------------------------------------------|
 B|-------------------------------------------------------------|
 G|-------------------------------------------------------------|
 D|-3--3-----------3------3-3-3----5----5-5----5-5-5----5--5----|
 A|-1--1--1-3-1-0--1--xx--1-1-1-XX-3-xx-3-3-xx-3-3-3-XX-3--3----|
 E|-------------------------------------------------------------|



 e|-------------------------------------------------------------|
 B|----------13b15r13b15--10-11-13-11p10----10h11p10----10------|
 G|--------------------------------------12----------12----12---|
 D|-7----7-7----------------------------------------------------|
 A|-5-XX-5-5----------------------------------------------------|
 E|-------------------------------------------------------------|



 e|-------------------------------------------------------------|
 B|-------------------------------------------------------------|
 G|-10h12--10h12--10h12--10-------------------------------------|
 D|-------------------------5----5-5----5-5-5--3--3--3--3-2-----|
 A|-------------------------3-xx-3-3-xx-3-3-3--1--1--1--1-0(AL)-|
 E|-------------------------------------------------------------|





 Interludio



 e|----------1p0-------5-3--------------------0---------3-1-----|
 B|------3-------3p1-----5------------------1---3-1-------------|
 G|-2--2---2---------3---------------5----0---------3-2-----5-3-|
 D|-0---------------------------3h5--5----------------------5-3-|
 A|-------------------------3h5---------3-----------------------|
 E|-------------------------------------------------------------|



 e|----------------------------------------0--1--0--------------|
 B|-----3--4--6--4p3----------6--5---2--3-----------3--2--------|
 G|---3---------------3-----------------------------------------|
 D|-3--------------------5--------------------------------------|
 A|-------------------------------------------------------------|
 E|-------------------------------------------------------------|



 e|----------1p0-------5-3--------------------------------------|
 B|------3-------3p1-----5------------------5h6--6/8\6--5-------|
 G|-2--2---2---------3---------------5----5-5h7--7/9\7--5--xx---|
 D|-0---------------------------3h5--5--5-----------------------|
 A|-------------------------3h5---------------------------------|
 E|-------------------------------------------------------------|



 e|-------------------------------------------------------------|
 B|-6/8--6/8--6/8------------3-4-6------6-5---------------------|
 G|-7/9--7/9--7/9--5--3----3-------3----------------------------|
 D|----------------5--3--3-----------5-------2------------------|
 A|------------------------------------------0------------------|
 E|-------------------------------------------------------------|




  Solo 2



 e|-17p13----17p13----17p13----17p13----17p13----17p13----17p13-|
 B|-------15-------15-------15-------15-------15-------15-------|
 G|-------------------------------------------------------------|
 D|-------------------------------------------------------------|
 A|-------------------------------------------------------------|
 E|-------------------------------------------------------------|



 e|----17p13----18p13----18p13----18p13----18p13----18p13-------|
 B|-15-------15-------15-------15-------15-------15-------15----|
 G|-------------------------------------------------------------|
 D|-------------------------------------------------------------|
 A|-------------------------------------------------------------|
 E|-------------------------------------------------------------|



 e|-18p13----18p13----18p13----15p12----15p12----15p12----15p12-|
 B|-------15-------15-------15-------13-------13-------13-------|
 G|-------------------------------------------------------------|
 D|-------------------------------------------------------------|
 A|-------------------------------------------------------------|
 E|-------------------------------------------------------------|



 e|-15p12----15p12----15p12----15p12----17p13----17p13----17p13-|
 B|-------13-------13-------13-------13-------13-------13-------|
 G|-------------------------------------------------------------|
 D|-------------------------------------------------------------|
 A|-------------------------------------------------------------|
 E|-------------------------------------------------------------|



 e|-17p13----17p13----17p13----17p13----17p13-------------------|
 B|-------13-------13-------13-------13-------13----15h16p15h16p|
 G|-------------------------------------------------15h17p15h17p|
 D|-------------------------------------------------------------|
 A|-------------------------------------------------------------|
 E|-------------------------------------------------------------|



 e|-------------------------15-15-15-15-15-15-------------------|
 B|15h16p15h16/18--16-15----------------------17-17-17-17-17-17-|
 G|15h17p15h17/19--17-15----------------------------------------|
 D|----------------------15-------------------------------------|
 A|-------------------------------------------------------------|
 E|-------------------------------------------------------------|



 e|-------------------------------------------------------------|
 B|---------------------17-17-17-17-17-17----14-14-14-14-14-14--|
 G|-15-15-15-15-15-15-------------------------------------------|
 D|-------------------------------------------------------------|
 A|-------------------------------------------------------------|
 E|-------------------------------------------------------------|



 e|-------------------------------------------------------------|
 B|-15-15-15-15-15-15---17-17-17-17-17-17---18-18-18-18-18-18---|
 G|-------------------------------------------------------------|
 D|-------------------------------------------------------------|
 A|-------------------------------------------------------------|
 E|-------------------------------------------------------------|



 e|--------------------17--20b22---17h20p17-------20------------|
 B|-20-20-20-20-20-20-----------------------20b22----20b20------|
 G|-------------------------------------------------------------|
 D|-------------------------------------------------------------|
 A|-------------------------------------------------------------|
 E|-------------------------------------------------------------|



 e|-------------------------------------------------------------|
 B|-14h15p14h15p14h15-------------------------------------------|
 G|---------------------14h15p14h15p14h15-----------------------|
 D|-----------------------------------------14h15p14h15p14h15---|
 A|-------------------------------------------------------------|
 E|-------------------------------------------------------------|



 e|--------------------------------------------12h13p12---------|
 B|------------------------------------14h15--------------13/15-|
 G|-----------------------------14h15---------------------------|
 D|-11h12p11h12p11h12----14h15----------------------------------|
 A|-------------------------------------------------------------|
 E|-------------------------------------------------------------|



 e|-5-6-8-5-6p5-----5-------------------------------------------|
 B|--------------8-----8-6p5----5-------------------------------|
 G|---------------------------7---7p5-----5---------------------|
 D|------------------------------------8-----8-7p5-7p5----------|
 A|-----------------------------------------------------8-7/8---|
 E|-------------------------------------------------------------|



 e|--------------------------------------5h6h8p6p5h6p5h6--------|
 B|--------------------------------5h6h8-----------------6p5-6p5|
 G|-------------------2h3h5--3h5h7------------------------------|
 D|-------------2h3h5-------------------------------------------|
 A|-------1h3h5-------------------------------------------------|
 E|-1h3h5-------------------------------------------------------|




 e|-------------------------------------------------------------|
 B|-------------------------------------------------------------|
 G|-6h7/9--6h7p6h7p6h7-----7h9p7h9p7h9------9h10p9h10p9h10------|
 D|-------------------------------------------------------------|
 A|-------------------------------------------------------------|
 E|-------------------------------------------------------------|



 e|-------------------------------------------------------------|
 B|-------------------------------------------------------------|
 G|-10h12p10h12p10h12----12h14p12h14p12h14----14h15p14h15p14h15-|
 D|-------------------------------------------------------------|
 A|-------------------------------------------------------------|
 E|-------------------------------------------------------------|



 e|-------------------------------------------------------------|
 B|--------------------------------------17-18----1719-20b22-20-|
 G|-15h17p15h17p15h17--17h19p17h19p17h19-------19---------------|
 D|-------------------------------------------------------------|
 A|-------------------------------------------------------------|
 E|-------------------------------------------------------------|



 e|-17-18-20-17-18----17----------------------------------------|
 B|----------------20----18-20-17-18----17----------------------|
 G|----------------------------------19----19p17----17----------|
 D|----------------------------------------------20----20-19-17-|
 A|-------------------------------------------------------------|
 E|-------------------------------------------------------------|



 e|-------------------------17-20-18-17-15-18-17-15-13-17-15-13-|
 B|-------------------------------------------------------------|
 G|-------17----------------------------------------------------|
 D|-19-20----20-19-17-------------------------------------------|
 A|-------------------19/20-------------------------------------|
 E|-------------------------------------------------------------|



 e|-12-1513-12-11-14-12-11-10-13-12-10---5h6p5---5--------------|
 B|--------------------------------------------8---8-6p5-6p5----|
 G|-------------------------------------------------------------|
 D|-------------------------------------------------------------|
 A|-------------------------------------------------------------|
 E|-------------------------------------------------------------|



 e|-------------------------------------------------------------|
 B|-------12b14r12p10--12/17------------------------------------|
 G|-6/7/9-------------------------------------------------------|
 D|------------------------------------3------------6-5p3-------|
 A|---------------------------5--5-3-5---5-3-5--5-3-------5-3-5-|
 E|-------------------------------------------------------------|



 e|----------------------------12-13-15-13-12-15-13-12-15-13-12-|
 B|-------------------10-12/14----------------------------------|
 G|-------5-7/9/10/12-------------------------------------------|
 D|-3-5/7-------------------------------------------------------|
 A|-------------------------------------------------------------|
 E|-------------------------------------------------------------|



 e|-15-13-12-15-13-12-15\---------------------------------------|
 B|-------------------------------------------------------------|
 G|------------------------12p10-12p12----10--12p10-12p12----10-|
 D|------------------------------------12-----------------12----|
 A|-------------------------------------------------------------|
 E|-------------------------------------------------------------|



 e|-------------------------------------------------------------|
 B|---------------------------------------------13--------------|
 G|-12p10-12p12----10--12p10-12p12----10--12b14----12b14r12p10--|
 D|-------------12-----------------12---------------------------|
 A|-------------------------------------------------------------|
 E|-------------------------------------------------------------|



 e|-------------------------------------------------------------|
 B|-------------------------------------------------------------|
 G|-12----------------------------------------------------------|
 D|------7-5-3----------------7---------------------------------|
 A|------------5-3-------3----5---------------------------------|
 E|----------------5-4-3-1--------------------------------------|



	  

mr-crowley-by-ozzy-osbourne Play

there is a video lesson for this song

view more
Search
auto scroll beats size up size down change color hide chords drawings
tab show chords e-chords YouTube Clip e-chords hide all tabs e-chords go to top tab