Avenged Sevenfold

home > Avenged Se... > chords

Buried Alive Tab

Avenged Sevenfold

Difficulty: ExpertExpert

by deivcavalcanti

tuner correct add songbook print version text version rtf version e-mail
chordsukulelecavacokeyboardtabbassdrumsharmonicsflute Guitar Pro
chords

Buried Alive

	  (intro) 

E|-------------------------------------------------------------------------| 
B|---------13--------15p13-----13---------------12--------10---------------| 
G|----14-------14------------14-------------12-------12--------12/14-------| 
D|-------------------------------------------------------------------------| 
A|-------------------------------------------------------------------------| 
D|----------------------------------------------14-------------------------| 

E|-------------------------------------0------------------------------------| 
B|--------5------5p4-----4-------------0-------------5----------------------| 
G|---7-------7---------7--------5------------7/4--------4-------------------| 
D|---0-----------------------------------------------5-------5--------------| 
A|--------------------------------0-----------------------------------------| 
D|--------------------------------------------------------------------------| 

E|-------------------------------------------------------------------------| 
B|---------13--------15p13-----13---------------12--------10---------------| 
G|----14-------14------------14-------------12-------12--------12/14-------| 
D|-------------------------------------------------------------------------| 
A|-------------------------------------------------------------------------| 
D|----------------------------------------------14-------------------------| 

E|-------------------------------------------------------------------------| 
B|--------5------5p4------------------------10---9h10p9--------9-----------| 
G|---7-------7---------7----9---10---12---------------------11-------------| 
D|---0---------------------------------------------------------------------| 
A|-------------------------------------------------------------------------| 
D|-------------------------------------------------------------------------| 

E|---------------------------------------------------------------------------|slide riff 
B|---------------------------------------------------------------------------| 
G|------/14---12---14 ---14/7---5--7---5---2---0-----/14--12---14------------| 
D|---------------------------------------------------------------------------| 
A|---------------------------------------------------------------------------| 
D|---------------------------------------------------------------------------| 

E|----------------------------------------------------------------------------| 
B|----------------------------------------------------------------------------| 
G|---14/7---/7-----5-----/14---12---14 ---14/7---5--7---5---2---0-------------| 
D|----------------------------------------------------------------------------| 
A|----------------------------------------------------------------------------| 
D|----------------------------------------------------------------------------| 

E|--------------------------------------------------------------------------| 
B|--5---6--5----------------------------------------------------------------| 
G|----------------9----5---------9----5-------------------------------------| 
D|--------------------------7-----------------7-----------------------------| 
A|--------------------------------------------------------------------------| 
D|-------------------------------------------------------------x------------|2 Slide riff 

E|----------------------------5(harmonic)-------------------------------------| 
B|------------5---5----------------------------------------5-----5------------| 
G|--5----4------------2--/5----------------------5----4---------------2--/5---| 
D|----------------------------------------------------------------------------| 
A|----------------------------------------------------------------------------| 
D|----------------------------------------------------------------------------| 

E|------5(harmonic)--------------------------------------------------------| 
B|-------------------------------------------------------------------------| 
G|-------------------------------------------------------------------------| 
D|---------------------------3(harmonic)-----------------------------------| 
A|-------------------------------------------------------------------------| 
D|-------------------------------------------------------------------------| 
	  

Request the video "Buried Alive"  -  Send "Buried Alive" Ringtone to your Cell

there isn't a video lesson for this song

request
e-chords
Search
auto scroll beats size up size down change color hide chords drawings
tab show chords e-chords YouTube Clip e-chords hide all tabs e-chords go to top tab