Zelda

Sheik's Theme

Zelda

tabs Easy easy

by  PAULANTUNES

save to print version add songbook text version e-mail correct tuner
chordsukulelecavacokeyboardtabbassdrumsharmonicaflute Guitar Pro
close

there isn't a video lesson for this song

chords

Sheik's Theme

	  		 
E|--6---------------------6---------------- 
B|----6-8---6---------------6-8---6-----6-- 
G|--------------7---5-----------------7---5 
D|----------------8------------------------ 
A|----------------------------------------- 
E|----------------------------------------- 
 

 
E|------------6-8-13-10-6-8 
B|--------6-8-------------- 
G|----5-7------------------ 
D|--8---------------------- 
A|------------------------- 
E|------------------------- x2 
 

 
E|--------6-------6---------- 
B|--6---8---6---8---6-------- 
G|----------------------7---5 
D|------------------------8-- 
A|--------------------------- 
E|--------------------------- 
 

E repete 
		  

auto scroll beats size up size down change color hide chords drawings
tab show chords e-chords YouTube Clip e-chords hide all tabs e-chords go to top tab

share