Zelda

Zelda Theme

Zelda

tabs Beginner beginner

by  FERNSANTANA

save to print version add songbook text version e-mail correct tuner
chordsukulelecavacokeyboardtabbassdrumsharmonicaflute Guitar Pro
close

there isn't a video lesson for this song

chords

Zelda Theme

	  		E|----------------------------5-3--------- 
B|0-3-----0----3---------0---3---3--1--0--     
G|---2-0-2-------2-----------------------2      (2x) 
D|----------------------------------------     
A|---------------------------------------- 
E|---------------------------------------- 

E|-5--3--2--3--2--3--2--0--2--0--5--5----- 
B|---------------5---------3-------------- 
G|-2--2--2--2--2--2--2--2-----2--2--2----- 
D|---------------------------------------- 
A|---------------------------------------- 
E|---------------------------------------- 
		  

auto scroll beats size up size down change color hide chords drawings
tab show chords e-chords YouTube Clip e-chords hide all tabs e-chords go to top tab

share