Widespread Panic

Happy

Widespread Panic

tabs

by  TARIKIKE

save to print version add songbook text version e-mail correct tuner
chordsukulelecavacokeyboardtabbassdrumsharmonicaflute Guitar Pro
close

there isn't a video lesson for this song

chords

Happy

Key:  G More
Happy Key DD
Happy Key D#D#
Happy Key EE
Happy Key FF(one step down)
Happy Key F#F#(half step down)
Happy Key GG(original key)
Happy Key G#G#(half step up)
Happy Key AA(one step up)
Happy Key A#A#
Happy Key BB
Happy Key CC
Happy Key C#C#
	  		Main Theme: 
     /   /   /   /       /     /   /   / 
e|--------------------|----------------------| 
B|-----8-------8------|------8-----8-----8---| 
G|-------0-------0----|--------0-------------| 
D|---5-----5-------5--|----------------------| 
A|--------------------|--6/7-----8-----7-----| 
E|--------------------|----------------------| 
    G                   C 

     /   /   /   /       /     /   /   / 
e|--------------------|----------------------| 
B|-----8-------8------|------8-----8-----8---| 
G|-------0-------0----|--------0-------------| 
D|---5-----5-------5--|----------------------| 
A|--------------------|--5/6-----7-----6-----| 
E|--------------------|----------------------| 
    G                   C 

     /   /   /   /       /     /   /   / 
e|--------------------|----------------------| 
B|-----8-------8------|------8-----8-----8---| 
G|-------0-------0----|--------0-------------| 
D|---5-----5-------5--|----------------------| 
A|--------------------|--6/7-----8-----7-----| 
E|--------------------|----------------------| 
    G                   C 

     /  /  /  /    /  /  /  /    /  /  /  / 
e|--------------|-------------|---------------| 
B|---1----------|--1----------|--0-----1------| 
G|---0----------|--2----------|--2-----2------| 
D|---2----------|--2----------|--2-----2------| 
A|---3-----2----|--0----------|--0-----0------| 
E|--------------|-------------|---------------| 
    C     Bm     Am 

Repeat Main Theme 

Theme 2: 
| /  /  /  / | 
  G     C     (x3) 

| /  /  /  / | 
  F           (x2)  (x4 2nd time through) 

Repeat from the top 

Bridge: 
| / / / / | / / / / | / / / / | / / / / | 
  Bm        C         Bm        F        (x3) 

| / / / / | / / / / | / / / / | / / / / | / / / / | 
  Bm        C         Bm        F         F 

Repeat Main Theme and Theme 2 flowing into the Finale 

 Finale: 
     /        /      /      / 
e|-------------------------------| 
B|-------------------10-----8-8--| 
G|----------8-7------------------| 
D|---6/7-10-----10-7----6/7------| 
A|-------------------------------| 
E|-------------------------------| 
    F 

    /        /      /     / 
e|--------------------------------| 
B|------------------8-------------| 
G|---------8-7------------10-10--.| 
D|--6/7-10-----10-7---6/7--------.| 
A|--------------------------------| 
E|--------------------------------| 

         /       / 
e|-----------------------| 
B|-------8-------10 10---| 
G|----------------------.| repeat 
D|---6/7-----6/7--------.| ad nauseum 
A|-----------------------| 
E|-----------------------| 
    F 



************************************ 

| /  Slide up 

************************************ 
		  

Full key step upFull key step up
Half key step upHalf key step up
Half key step downHalf key step down
Full key step downFull key step down
hide glossary

See also:

tabs Simon & Garfunkel - Sounds of silence tabs The Strokes - Juicebox tabs John Mayer - Belief tabs Guns N' Roses - Sweet Child o' mine tabs Guns N' Roses - November Rain tabs Foo Fighters - Everlong (acústico)
e-chords

Other versions:

tabs The Rolling Stones - Happy tabs Travis - Happy tabs John Butler Trio - Happy tabs Widespread Panic - Happy tabs The Maine - Happy (acoustic) tabs Iwan Rheon - Happy Again
auto scroll beats size up size down change color hide chords drawings
tab show chords e-chords YouTube Clip e-chords hide all tabs e-chords go to top tab

share