White Stripes

Hypnotise Tab

White Stripes

Difficulty: nolevelnolevel

tuner correct add songbook print version text version save to e-mail
chordsukulelecavacokeyboardtabbassdrumsharmonicsflute Guitar Pro
close

there isn't a video lesson for this song

request
chords

Hypnotise

  		Intro/verse 
 
---------------------------/------------------  -------------------------- 
---------------------------/------------------  -------------------------- 
--777----------------------/--77777-----------  -------------------------- 
--777--101010-1414---------/--77777-----------or--10101010--14--10101010-- 
--777--101010-1414--101010-/--77777-----5--7--  --10101010--14--10101010-- 
--555--8 8 8--1212--8 8 8--/--55555--1--3--5--  --8 8 8 8---12--8 8 8 8--- 
 
 
Extra 
 
----------------------------- 
----------------------------- 
------------------------777-- 
--151515--121212--1414--777-- 
--151515--121212--1414--777-- 
--131313--101010--1212--555-- 
 
bassy bit 
 
------------------/----- 
------------------/----- 
------------------/----- 
------------------/--2-- 
------------------/--2-- 
--5x23--1x4--3x8--/--0--x29 
	  

Search Paypal
auto scroll beats size up size down change color hide chords drawings
tab show chords e-chords YouTube Clip e-chords hide all tabs e-chords go to top tab

share with facebook