White Stripes

Hardest Button To Button Tab

White Stripes

Difficulty: EasyEasy

tuner correct add songbook print version text version save to e-mail
chordsukulelecavacokeyboardtabbassdrumsharmonicsflute Guitar Pro
close

there isn't a video lesson for this song

request
chords

Hardest Button To Button

  		Intro/Main Riff - Play X2 before verse begins 
e|---------------------------------------------| 
B|---------------------------------------------| 
G|---2-----------5-----------2-----------5-----| 
D|-----2-----------5-----------2-----------5---| 
A|-0-----0-----3-----3-----0-----0-----3-----3-| 
E|---------------------------------------------| 
 
e|---------------------------------------------| 
B|---------------------------------------------| 
G|---2-----------5-----------4-----------7-----| 
D|-----2-----------5-----------4-----------7---| 
A|-0-----0-----3-----3-----2-----2-----5-----5-| 
E|---------------------------------------------| 
 
Pre-Chorus: 
e|-----------------------------------------------------| 
B|---------------------------------------------------0-| 
G|---2-----------5-----------4-----------3-----------0-| 
D|-----2-----------5-----------4-----------3---------0-| 
A|-0-----0-----3-----3-----2-----2-----1-----1---------| 
E|-----------------------------------------------0-----| 
 
Chorus: 
e|---------------------------------------------------| 
B|---------------------------------------------------| 
G|---------------------------------------------------| 
D|--7------7-----7------7----10--10----10-----10-----| 
A|--7------7-----7------7----10--10----10-----10-----| 
E|--5------5-----5--0---5-----8---8-----8--0---8-----| 
 
e|----------------------------------------------------| 
B|----------------------------------------------------| 
G|----------------------------------------------------| 
D|--7----7--------7------7----10---10-----10-------10-| 
A|--7----7--------7------7----10---10-----10-------10-| 
E|--5----5--------5--0---5-----8----8------8---0----8-| 
 
e|------------------------------------------------------------| 
B|------------------------------------------------------------| 
G|------------------------------------------------------------| 
D|--7----7--------7-------7---10---10------10------10---7---7-| 
A|--7----7--------7-------7---10---10------10------10---7---7-| 
E|--5----5--------5---0---5----8----8-------8--0----8---5---5-| 
 
e|--------------------------------------------------------------| 
B|--------------------------------------------------------------| 
G|--------------------------------------------------------------| 
D|-7-------7----10---10------10------10---9-----9-------9-----9-| 
A|-7-------7----10---10------10------10---9-----9-------9-----9-| 
E|-5---0---5-----8----8-------8---0---8---7-----7-------7--0--7-| 
 
e|--------------------------------| 
B|--------------------------------| 
G|--------------------------------| 
D|--8-------8-------8-------------| 
A|--8-------8-------8-------------| 
E|--6-------6-------6---0----0----| 
 
Interlude 
e|----------------------------------------------------|| 
B|------------------------------5-----5-----5-----5---|| 
G|--7-----7-----7-----7---------5-----5-----5-----5---||o 
D|--7-----7-----7-----7---------5-----5-----5-----5---||o  repeat this however 
A|--7-----7-----7-----7---------3-----3-----3-----3---||   many times then this... 
E|--5-----5-----5-----5-------------------------------|| 
 
e|----------------------------------------------------| 
B|--4-----4-----4-----4---------3-----3-----3-----3---| 
G|--4-----4-----4-----4---------3-----3-----3-----3---| 
D|--4-----4-----4-----4---------3-----3-----3-----3---| 
A|--2-----2-----2-----2---------1-----1-----1-----1---| 
E|----------------------------------------------------| 
 
Interlude 2: 
e|----------------------------------------------------| 
B|------------------------------5-----5-----5-----5---| 
G|--7-----7-----7-----7---------5-----5-----5-----5---| 
D|--7-----7-----7-----7---------5-----5-----5-----5---| 
A|--7-----7-----7-----7---------3-----3-----3-----3---| 
E|--5-----5-----5-----5-------------------------------| 
 

	  

Search Paypal
auto scroll beats size up size down change color hide chords drawings
tab show chords e-chords YouTube Clip e-chords hide all tabs e-chords go to top tab

share with facebook