Weezer

home > Weezer

Just What I Needed Tab

Weezer

Difficulty: nolevelnolevel

by weezer+pillows

tuner correct add songbook print version text version save to e-mail
chordsukulelecavacokeyboardtabbassdrumsharmonicsflute Guitar Pro
chords

Just What I Needed

  		Rivers Cuomo from weezer 
performing a cover of "just what i needed" 
 
STANDARD TUNING! 
 
Intro 
|----- 
|----- 
|--8-- just play this chord 
|--8-- a bunch of times. 
|--6-- 
|----- 
 
Verse 
|----------------------------------- 
|----------------------------------- 
|--8-8-8-8-8-8-8-8------------------ 
|--8-8-8-8-8-8-8-8-8-8-8-8-8-8-8-8-- 
|--6-6-6-6-6-6-6-6-8-8-8-8-8-8-8-8-- 
|------------------6-6-6-6-6-6-6-6-- 
 
|----------------------------------- 
|----------------------------------- 
|--5-5-5-5-5-5-5-5------------------ 
|--5-5-5-5-5-5-5-5-5-5-5-5-5-5-5-5-- 
|--3-3-3-3-3-3-3-3-5-5-5-5-5-5-5-5-- 
|------------------3-3-3-3-3-3-3-3-- 
 
Little mini solo thing 
|--------------------------- 
|----------4-3-------------- 
|--3~-0-3~-----5-3-5-3--4v-- 
|--------------------------- 
|--------------------------- 
|--------------------------- 
 
Chorus 
|---------------------------------- 
|---------------------------------- 
|--8-8-x-----------5-5-x----------- 
|--8-8-x--8-8-8-8--5-5-x--6-6-6-6-- 
|--6-6-x--8-8-8-8--3-3-x--6-6-6-6-- 
|---------6-6-6-6---------4-4-4-4-- 
 
 
 
 

	  

Search Paypal
auto scroll beats size up size down change color hide chords drawings
tab show chords e-chords YouTube Clip e-chords hide all tabs e-chords go to top tab