Wax Mannequin

Don't Want To Go

Wax Mannequin

tabs

by  SABRJOAO

save to print version add songbook text version e-mail correct tuner
chordsukulelecavacokeyboardtabbassdrumsharmonicaflute Guitar Pro
close

there isn't a video lesson for this song

chords

Don't Want To Go

	  		
   
Verse  
  D   A   D   A    Bm  F#m Bm  E  
e|-2-2-0-0-2-2-0-0|-2-2-2-2-2-2-0-0| 
B|-3-3-2-2-3-3-2-2|-3-3-2-2-3-3-0-0| 
G|-2-2-2-2-2-2-2-2|-4-4-2-2-4-4-1-1| 
D|0-----2-0-----2-|----------------| 
A|--0-0-----0-0---|2-----4-2---2---| 
E|----------------|--2-2-----2---0-| 
  
  D   A   F#m  A   Bm  F#m Bm  E  
e|-2-2-0-0-2-2-0-0|-2-2-2-2-2-2-0-0| 
B|-3-3-2-2-2-2-2-2|-3-3-2-2-3-3-0-0| 
G|-2-2-2-2-2-2-2-2|-4-4-2-2-4-4-1-1| 
D|0-----2-------2-|----------------| 
A|--0-0-----4-0---|2-----4-2---2---| 
E|--------2-------|--2-2-----2---0-| 

Chorus 
  D   A   D   A7   F#m C#m F#m Bm   
e|-2-2-0-0-2-2-0-0|-2-2-4-4-2-2-2-2| 
B|-3-3-2-2-3-3-2-2|-2-2-5-5-2-2-3-3| 
G|-2-2-2-2-2-2-2-2|-2-2-6-6-2-2-4-4| 
D|0-----2-0-----2-|----------------| 
A|--0-0-----0-0---|--4-4-----4-2---| 
E|----------------|2-----4-2-----2-| 

 
		  

Full key step upFull key step up
Half key step upHalf key step up
Half key step downHalf key step down
Full key step downFull key step down
hide glossary

See also:

tabs Deep Purple - Smoke On The Water (Intro + solo 01) tabs Deep Purple - Perfect Strangers tabs Deep Purple - Smoke on the water (ver. 3) tabs Ira! - Eu Quero Sempre Mais (ver. 2) tabs Deep Purple - Fireball (ver. 2) tabs Deep Purple - Squished Bananas Dave&cammey
e-chords

Other versions:

tabs Wax Mannequin - Don't Want To Go
auto scroll beats size up size down change color hide chords drawings
tab show chords e-chords YouTube Clip e-chords hide all tabs e-chords go to top tab

share with facebook