Viza

Viktor

Viza

tabs

by  PAULANTUNES

save to print version add songbook text version e-mail correct tuner
chordsukulelecavacokeyboardtabbassdrumsharmonicaflute Guitar Pro
close

there isn't a video lesson for this song

chords

Viktor

	  		INTRO 

 
--------------------------------------------------------| 
--------------------------------------------------------| 
--------------------------------------------------------| 
--------------------------------------------------------| 
-------------------------------------15-13--------------| 
14-15-17-#17#-14-15-17-#18#-14-15-17-------17-15-17-15--| 
 

 
-------------------------------------| 
-------------------------------------| 
-------------------------------------| 
-------------------------------------| 
-------------------------------------| 
14-15-17-#17#-14-15-17-#17#-14-15-17-| 
 

 
----------------------------------------------| 
----------------------------------------------| 
----------------------------------------------| 
----------------------------------------------| 
--------------15-13---------------------------| 
#18#-14-15-17-------17-15-17-15-14-11-10-#10#-| 
 

 
-------------------------------------------------| 
-------------------------------------------------| 
-------------------------------------------------| 
-------------------------------------------------| 
-------------------------------------------------| 
11-10-9-#10#-11-10-9-#10#-11-10-9-10--10--10--10-| 
 

 
------------------8---------------------------------| 
8---------8-10-11---11-10-8-8/10/8----8-10-10-10b11-| 
--11-8-11--------------------------11---------------| 
----------------------------------------------------| 
----------------------------------------------------| 
----------------------------------------------------| 
 

 
------------------14----------------14--------------------13-14-15-16-16b17-| 
---------13-15-16----16-15-13-15-16-----16-15-13/15/13----------------------| 
12-14-15-----------------------------------------------15-------------------| 
----------------------------------------------------------------------------| 
----------------------------------------------------------------------------| 
----------------------------------------------------------------------------| 
 

 
--------------------------------------------------------------------------| 
--------------------------------------------------------------------------| 
#14#-15-17-#14#---------------#14#-15-17-#14#----------~~~~~~~~~~~~~~~~~~-| 
----------------17-16-15-#16#-----------------17-16-15-17-16-15-17-16-15--| 
--------------------------------------------------------------------------| 
--------------------------------------------------------------------------| 
 

 
--------------------------------------------------| 
--------------------------------------------------| 
#14#-15-17-#14#-----------------------------------| 
----------------17-16-15-#16#-#17#-#16#-#17#-#16#-| 
--------------------------------------------------| 
--------------------------------------------------| 
 

 
--------------------------------------------------------------------------| 
--------------------------------------------------------------------------| 
#14#-15-17-#14#---------------#14#-15-17-#14#----------~~~~~~~~~~~~~~~~~~-| 
----------------17-16-15-#16#-----------------17-16-15-17-16-15-17-16-15--| 
--------------------------------------------------------------------------| 
--------------------------------------------------------------------------| 
 

 
--------------------------------------------------| 
--------------------------------------------------| 
#14#-15-17-#14#-----------------------------------| 
----------------17-16-15-#16#-#17#-#16#-#17#-#16#-| 
--------------------------------------------------| 
--------------------------------------------------| 
 

Verso 1 

(Viktor! My friend .... toca até o final do verso) 
 
----------------------------| 
----------------------------| 
----------------------------| 
----------------------------| 
12--12--12--12--12--12--12--| 
10--10--10--10--10--10--10--| 
 

(after verse 1) 

 
-------------------------------| 
-------------------------------| 
-------------------------------| 
~~~~----~~~~----~~~~----~~~~---| 
12--13--13--12--12--13--13--12-| 
10--11--11--10--10--11--11--10-| 


Verso 2 

 
----------------------------| 
----------------------------| 
----------------------------| 
----------------------------|  ................ 
12--12--12--12--12--12--12--| 
10--10--10--10--10--10--10--| 
 

 
-------------------------------| 
-------------------------------| 
-------------------------------| 
~~~~----~~~~----~~~~----~~~~---| 
12--13--13--12--12--13--13--12-| 
10--11--11--10--10--11--11--10-| 



Refrão 

 
---------------------------------------------------------| 
------------------13-------------------------13----------| 
12-12-14-14-15-15----15-14-12-12-14-14-15-15----15-14-12-| 
---------------------------------------------------------| 
---------------------------------------------------------| 
---------------------------------------------------------| 
 

 
---------------------------------| 
---------------13-------13-------| 
12-14-14-15-15----15-14----15-14-| 
---------------------------------| 
---------------------------------| 
---------------------------------| 
 

Verso 3 

 
----------------------------| 
----------------------------| 
----------------------------| ................. 
----------------------------| 
12--12--12--12--12--12--12--| 
10--10--10--10--10--10--10--| 
 


 
-------------------------------| 
-------------------------------| 
-------------------------------| 
~~~~----~~~~----~~~~----~~~~---| 
12--13--13--12--12--13--13--12-| 
10--11--11--10--10--11--11--10-| 


Verso 4 

 
----------------------------| 
----------------------------| 
----------------------------| 
----------------------------|  ................ 
12--12--12--12--12--12--12--| 
10--10--10--10--10--10--10--| 
 

 
-------------------------------| 
-------------------------------| 
-------------------------------| 
~~~~----~~~~----~~~~----~~~~---| 
12--13--13--12--12--13--13--12-| 
10--11--11--10--10--11--11--10-| 
		  

See also:

tabs Bon Jovi - It's My Life tabs Kiss - Forever tabs Aerosmith - Dream On tabs Foo Fighters - Everlong (acústico) tabs The Doors - People Are Strange tabs The Offspring - All I Want
e-chords

Other versions:

tabs Viza - Viktor
auto scroll beats size up size down change color hide chords drawings
tab show chords e-chords YouTube Clip e-chords hide all tabs e-chords go to top tab

share