Viza

Fork In The Road

Viza

tabs

by  HUGO_RODRIGUES

save to print version add songbook text version e-mail correct tuner
chordsukulelecavacokeyboardtabbassdrumsharmonicaflute Guitar Pro
close

there isn't a video lesson for this song

chords

Fork In The Road

	  		
INTRO 

-----------------------------| 
-----------------------------| 
-----------------------------| 
--8--8--8-7~--7---8--8--8-7~-| 
--6--6--6----9----6--6--8----| 
--6--6--6---------6--6--6----| 

VERSE 1 

2x 
------------------------------------------| 
-9--8/9/8--8-9----------------------------| 
8---------9----8--9-11-9-8--------------8-| 
-------------------------------12--9-12---| 
---------------------------11-------------| 
------------------------------------------| 

--------------------------------------------------------------------| 
-9--8/9/8--8-9------------------------------------------------------| 
8---------9----8--9-11-9-8----------------8------------8------------| 
-------------------------------12--9-8------12--9-8------12--9-8----| 
---------------------------11----------11-----------11-----------11-| 
--------------------------------------------------------------------| 

CHORUS 

2x 
----------11----------12-----11------------| 
----------------12------------------11-----| 
9----8-------------------------------------| 
-------------------------------------------| 
-------------------------------------------| 
-------------------------------------------| 

VERSE 2 


------------------------------------------| 
-9--8/9/8--8-9----------------------------| 
8---------9----8--9-11-9-8--------------8-| 
-------------------------------12--9-12---| 
---------------------------11-------------| 
------------------------------------------| 

--------------------------------------------------------------------| 
-9--8/9/8--8-9------------------------------------------------------| 
8---------9----8--9-11-9-8----------------8------------8------------| 
-------------------------------12--9-8------12--9-8------12--9-8----| 
---------------------------11----------11-----------11-----------11-| 
--------------------------------------------------------------------| 

CHORUS 


2x 
----------11----------12-----11----------| 
----------------12------------------11---| 
9----8-----------------------------------| 
-----------------------------------------| 
-----------------------------------------| 
-----------------------------------------| 


VERSE 3 

----------------------------------------------------------------------------| 
----------------------------------------------------------------------------| 
------8---9--8-------------------8------------------------------------------| 
9--11---9-------11--9--8--9-11-8----11--9--8------8-9-----11--9--8----------| 
----------------------------------------------11------11------------11--10--| 
----------------------------------------------------------------------------| 

--------------| 
--------------| 
--------------| 
--------------| 
10/11/10------| 
----------11--| 

----------------------------------------------------------------------------| 
----------------------------------------------------------------------------| 
------8---9--8-------------------8------------------------------------------| 
9--11---9-------11--9--8--9-11-8----11--9--8------8-9-----11--9--8----------| 
----------------------------------------------11------11------------11--10--| 
----------------------------------------------------------------------------| 

--------| 
--------| 
--------| 
--------| 
10--10--| 
--------| 

SOLO 
~~~~~~~~~~~~~~~~~~~~~~~~~~~~~~~~~~~~~~~~~ 
------------------------------------------| 
-9--8------8-9----------------------------| 
8---------9----8--9-11-9-8--------------8-| 
-------------------------------12--9-12---| 
---------------------------11-------------| 
------------------------------------------| 

~~~~~~~~~~~~~~~~~~~~~~~~~~~~~~~~~~~~~~~~~~~~~~~~~~~~~~~~~~~~~~~~~~~ 
--------------------------------------------------------------------| 
-9--8------8-9------------------------------------------------------| 
8---------9----8--9-11-9-8----------------8------------8------------| 
-------------------------------12--9-8------12--9-8------12--9-8----| 
---------------------------11----------11-----------11-----------11-| 
--------------------------------------------------------------------| 

(I advise you to play with fingers not pick-up) 

~~~~~~~~~~~~~~~~~~~~~~~~~~~~~~~~~ 
12----11--------7----12----11----6-----| 
---------------------------------------| 
---------------------------------------| 
---------------------------------------| 
---------------------------------------| 
---------------------------------------| 

CHORUS 

19p12-19p12-19p12-19p12-19p12-19p12-19p12-19p12-18p11-18p11-18p11-18p11-| 
------------------------------------------------------------------------| 
------------------------------------------------------------------------| 
------------------------------------------------------------------------| 
------------------------------------------------------------------------| 
------------------------------------------------------------------------| 

18p11-18p11-18p11-18p11-18p11-18p11-18p11-18p11-18p11-18p11-18p11-18p11-| 
------------------------------------------------------------------------| 
------------------------------------------------------------------------| 
------------------------------------------------------------------------| 
------------------------------------------------------------------------| 
------------------------------------------------------------------------| 

------------------------------------------------| 
21p12-21p12-21p12-21p12-21p12-21p12-21p12-21p12-| 
------------------------------------------------| 
------------------------------------------------| 
------------------------------------------------| 
------------------------------------------------| 

19p12-19p12-19p12-19p12-19p12-19p12-19p12-19p12-18p11-18p11-18p11-18p11-| 
------------------------------------------------------------------------| 
------------------------------------------------------------------------| 
------------------------------------------------------------------------| 
------------------------------------------------------------------------| 
------------------------------------------------------------------------| 

18p11-18p11-18p11-18p11-------------------------------------------------| 
------------------------20p11-20p11-20p11-20p11-20p12-20p12-20p12-20p12-| 
------------------------------------------------------------------------| 
------------------------------------------------------------------------| 
------------------------------------------------------------------------| 
------------------------------------------------------------------------| 

------------------------18p11-18p11-18p11-18p11-| 
21p14-21p14-21p14-21p14-------------------------| 
------------------------------------------------| 
------------------------------------------------| 
------------------------------------------------| 
------------------------------------------------| 

19p12-19p12-19p12-19p12-19p12-19p12-19p12-19p12-18p11-18p11-18p11-18p11-| 
------------------------------------------------------------------------| 
------------------------------------------------------------------------| 
------------------------------------------------------------------------| 
------------------------------------------------------------------------| 
------------------------------------------------------------------------| 

18p11-18p11-18p11-18p11-18p11-18p11-18p11-18p11-18p11-18p11-18p11-18p11-| 
------------------------------------------------------------------------| 
------------------------------------------------------------------------| 
------------------------------------------------------------------------| 
------------------------------------------------------------------------| 
------------------------------------------------------------------------| 

------------------------------------------------| 
21p12-21p12-21p12-21p12-21p12-21p12-21p12-21p12-| 
------------------------------------------------| 
------------------------------------------------| 
------------------------------------------------| 
------------------------------------------------| 

19p12-19p12-19p12-19p12-19p12-19p12-19p12-19p12-18p11-18p11-18p11-18p11-| 
------------------------------------------------------------------------| 
------------------------------------------------------------------------| 
------------------------------------------------------------------------| 
------------------------------------------------------------------------| 
------------------------------------------------------------------------| 

18p11-18p11-18p11-18p11-------------------------------------------------| 
------------------------20p11-20p11-20p11-20p11-20p12-20p12-20p12-20p12-| 
------------------------------------------------------------------------| 
------------------------------------------------------------------------| 
------------------------------------------------------------------------| 
------------------------------------------------------------------------| 

------------------------18p11-18p11-18p11-18p11-| 
21p14-21p14-21p14-21p14-------------------------| 
------------------------------------------------| 
------------------------------------------------| 
------------------------------------------------| 
------------------------------------------------| 

19p12-19p12-19p12-19p12-19p12-19p12-19p12-19p12-18p11-18p11-18p11-18p11-| 
------------------------------------------------------------------------| 
------------------------------------------------------------------------| 
------------------------------------------------------------------------| 
------------------------------------------------------------------------| 
------------------------------------------------------------------------| 

18p11-18p11-18p11-18p11-18p11-18p11-18p11-18p11-18p11-18p11-18p11-18p11-| 
------------------------------------------------------------------------| 
------------------------------------------------------------------------| 
------------------------------------------------------------------------| 
------------------------------------------------------------------------| 
------------------------------------------------------------------------| 

------------------------------------------------| 
21p12-21p12-21p12-21p12-21p12-21p12-21p12-21p12-| 
------------------------------------------------| 
------------------------------------------------| 
------------------------------------------------| 
------------------------------------------------| 

19p12-19p12-19p12-19p12-19p12-19p12-19p12-19p12-18p11-18p11-18p11-18p11-| 
------------------------------------------------------------------------| 
------------------------------------------------------------------------| 
------------------------------------------------------------------------| 
------------------------------------------------------------------------| 
------------------------------------------------------------------------| 

18p11-18p11-18p11-18p11-------------------------------------------------| 
------------------------20p11-20p11-20p11-20p11-20p12-20p12-20p12-20p12-| 
------------------------------------------------------------------------| 
------------------------------------------------------------------------| 
------------------------------------------------------------------------| 
------------------------------------------------------------------------| 

------------------------18p11-18p11-18p11-18p11-| 
21p14-21p14-21p14-21p14-------------------------| 
------------------------------------------------| 
------------------------------------------------| 
------------------------------------------------| 
------------------------------------------------| 

OUTRO 

12--11-------------------------11-12--11----------------------------| 
-------14-12---------11-12--14-----------14-12----------11--14--12--| 
--------------12--13----------------------------12--13--------------| 
--------------------------------------------------------------------| 
--------------------------------------------------------------------| 
--------------------------------------------------------------------|  
		  

See also:

tabs Simon & Garfunkel - Sounds of silence tabs The Strokes - Juicebox tabs John Mayer - Belief tabs Guns N' Roses - Sweet Child o' mine tabs Guns N' Roses - November Rain tabs Foo Fighters - Everlong (acústico)
e-chords

Other versions:

tabs Lillix - Fork In The Road tabs Viza - Fork In The Road
auto scroll beats size up size down change color hide chords drawings
tab show chords e-chords YouTube Clip e-chords hide all tabs e-chords go to top tab

share