Viza

Cats Eye

Viza

tabs

by  HUGO_RODRIGUES

save to print version add songbook text version e-mail correct tuner
chordsukulelecavacokeyboardtabbassdrumsharmonicaflute Guitar Pro
close

there isn't a video lesson for this song

chords

Cats Eye

	  		Viza 
Cat's eye. 

Album: Eros 

Tun. C G C F A D 

Intro 
D|-7-12-10-12---7-14-12-10---7-12-10-8-10-12-10s12-10-8-8s10s8-| 
A|-------------------------------------------------------------| 
F|-------------------------------------------------------------| 
C|-------------------------------------------------------------| 
G|-------------------------------------------------------------| 
C|-------------------------------------------------------------| 

 * * * * * * * * * * * * * * * * * * * * * *  
 * D|-------------------------------|      * 
 * A|-0-2-2-2-3-5p3p2---7-3-5-7p5p3-|      * 
 * F|-------------------------------|      * 
 * C|-------------------------------| x3   * 
 * G|-------------------------------|      * 
 * C|-------------------------------|      * 
 *                                         * x2 
 * D|-----------------------------------|  * 
 * A|-0-0-0-0-5-0-0-0-0-5--5--5-7-3-5-2-|  * 
 * F|-----------------------------------|  *  
 * C|-----------------------------------|  *  
 * G|-----------------------------------|  * 
 * C|-----------------------------------|  * 
 * * * * * * * * * * * * * * * * * * * * * * 

D|-9-9t-9-99-77-5---5--7-9-10-7-9-7-7t-7-77-55-4---4--5-7-9-5-7-5-5t-5-55-44-2---2--4-5-7-4-5-| 
A|--------------------------------------------------------------------------------------------| 
F|--------------------------------------------------------------------------------------------| 
C|--------------------------------------------------------------------------------------------| 
G|--------------------------------------------------------------------------------------------| 
C|--------------------------------------------------------------------------------------------| 

D|----------------------------| 
A|-0-0-0-0-5--------5-7-3-5-2-| 
F|----------------------------| 
C|----------------------------| 
G|----------------------------| 
C|----------------------------| 

Verse 
 * * * * * * * * * * * * * * * * * * * * * 
 * D|-------------------------------|    * 
 * A|-0-2-2-2-3-5p3p2---7-3-5-7p5p3-|    * 
 * F|-------------------------------|    *  
 * C|-------------------------------| x3 * 
 * G|-------------------------------|    * 
 * C|-------------------------------|    * 
 *                                       * x2 
 * D|-4-5-5-5-5-4-4-4-4-2-2-2-2-1-1-|    * 
 * A|-5-7-7-7-7-5-5-5-5-3-3-3-3-2-2-|    * 
 * F|-------------------------------|    * 
 * C|-------------------------------|    * 
 * G|-------------------------------|    * 
 * C|-------------------------------|    *  
 * * * * * * * * * * * * * * * * * * * * * 
  
Chorus 
D|-9-9t-9-99-77-5---5--7-9-10-7-9-7-7t-7-77-55-4---4--5-7-9-5-7-5-5t-5-55-44-2---2--4-5-7-4-5-| 
A|--------------------------------------------------------------------------------------------| 
F|--------------------------------------------------------------------------------------------| 
C|--------------------------------------------------------------------------------------------| 
G|--------------------------------------------------------------------------------------------| 
C|--------------------------------------------------------------------------------------------| 

D|----------------------------| 
A|-0-0-0-0-5--------5-7-3-5-2-| 
F|----------------------------| 
C|----------------------------| 
G|----------------------------| 
C|----------------------------| 

Verse (x1) 

Chorus (x2) 

Bridge 
  
  Part 1 (Drums) 

  Part 2 
   
  D|------------------------|     |-------------| 
  A|-8-11-11-11-12-11-11-11-|     |-11-8-7-8-11-|  
  F|------------------------|     |-------------| 
  C|------------------------| x7  |-------------| 
  G|------------------------|     |-------------| 
  C|------------------------|     |-------------| 
 PM ======================== 

  D|------------------|     |------------| 
  A|------------------|     |------------| 
  F|-7-9-9-9-11-9-9-9-|     |9-7-6-7-9---| 
  C|------------------| x3  |------------| 
  G|------------------|     |------------| 
  C|------------------|     |------------| 
 PM ===================================== 
  D|------------------|     |------------| 
  A|------------------|     |------------| 
  F|-7-9-9-9-11-9-9-9-|     |9-7-6-7-6---| 
  C|------------------| x3  |------------| 
  G|------------------|     |------------| 
  C|------------------|     |------------| 
 PM ===================================== 
Chorus (x2) 

Outro 
D|-------------------------------|     
A|-0-2-2-2-3-5p3p2---7-3-5-7p5p3-|     
F|-------------------------------|      
C|-------------------------------| x3  
G|-------------------------------|     
C|-------------------------------|   

D|-----------------------------------|-----|   
A|-0-0-0-0-5-0-0-0-0-5--5--5-7-3-5-2-|-222-|   
F|-----------------------------------|-----|    
C|-----------------------------------|-----|    
G|-----------------------------------|-----|   
C|-----------------------------------|-----| 


 PM - Palm mute 
 T - Tremolo pick 
 h - Hammer on 
 p - Pull off 
 s - Slide 
		  

Full key step upFull key step up
Half key step upHalf key step up
Half key step downHalf key step down
Full key step downFull key step down
hide glossary

See also:

tabs Bon Jovi - It's My Life tabs Kiss - Forever tabs Aerosmith - Dream On tabs Foo Fighters - Everlong (acústico) tabs The Doors - People Are Strange tabs The Offspring - All I Want
e-chords

Other versions:

tabs Viza - Cats Eye tabs White Zombie - Cats Eye Resurrection
auto scroll beats size up size down change color hide chords drawings
tab show chords e-chords YouTube Clip e-chords hide all tabs e-chords go to top tab

share