Vickeblanka

Black Rover

Vickeblanka

tabs

by  HEBEALMEIDA

save to print version add songbook text version e-mail correct tuner
chordsukulelecavacokeyboardtabbassdrumsharmonicaflute Guitar Pro
close

there isn't a video lesson for this song

chords

Black Rover

	  		Afinação: D A D G B E 

E|---------------------------------|-------------------------| 
B|---------------------11----------|-----14--11--9--7--6-----| 
G|11--13--10--11---8---x--10--7--7-|-11--x---x---x--x--x-----| 
D|x---x---x---x----x---8---x--x--x-|-x---11--8---6--4--3-----| 
A|9---11--8---9----6-------8--5--5-|-9-----------------------| 
E|---------------------------------|-------------------------| 

E|--------------\------\-------------------------------------| 
B|--------------/------/-------------------------------------| 
G|----4---------\--11--\-----13--11--10--13--11--10--7-------| 
D|-8--4--6--8---/--x---/-----x---x---x---x---x---x---x-------| 
A|-8--2--6--8---\--9---\-----11--9---8---11--9---8---5-------| 
E|-6-----6--8---/------/-------------------------------------| 
  
E|-----------------------------------------------------------| 
B|-------------------------------------------12--12--11------| 
G|-11--10------------10--10--10--11--11--11------------------| 
D|--------13--13--13-----------------------------------------| 
A|-----------------------------------------------------------| 
E|-----------------------------------------------------------| 
  
E|--------------------------------------------|--------------| 
B|-14--12--11--9--12--11--9----10--9----14----|--------------| 
G|--------------------------11-------11-------|-----4--6--11-| 
D|--------------------------------------------|--1--4--6--11-| 
A|--------------------------------------------|--1--2--4--9--| 
E|--------------------------------------------|--1-----------| 
  
E|-----------------------------------------------------------| 
B|-----------------------------------------------------------| 
G|-10--8--4--6----------4--6--11--10--8--4--6----------------| 
D|-x---8--4--6--4-3--1--4--6--11--x---8--4--6--4-3--1--------| 
A|-8---6--2--4--4-3--1--2--4--9---8---6--2--4--4-3--1--------| 
E|--------------4-3--1-------------------------4-3--1--------| 
		  

Full key step upFull key step up
Half key step upHalf key step up
Half key step downHalf key step down
Full key step downFull key step down
auto scroll beats size up size down change color hide chords drawings
tab show chords e-chords YouTube Clip e-chords hide all tabs e-chords go to top tab

share