Vetiver

Down From Above

Vetiver

tabs

by  LINEKERS

save to print version add songbook text version e-mail correct tuner
chordsukulelecavacokeyboardtabbassdrumsharmonicaflute Guitar Pro
close

there isn't a video lesson for this song

chords

Down From Above

	  		Vetiver - Down From Above 

SYNTH INTRO 
C 

GUITAR INTRO (riff is played throughout the song) 
   C 
e|--------------| 
B|--1--1--1--1--| 
G|---0--0--0--0-| 
D|----2-----2---| 
A|-3-----3------| 
E|--------------| 

verse 1 
C 
Golden light, 
love in light 

   Fmaj7 
e|-----------(0)| the E is sometimes played instead 
B|--1--1--1--1--| of the A as the final note of the riff 
G|---2--2--2--2-| 
D|----3-----3---| 
A|-3-----3------| 
E|--------------| 
Fmaj7 
watch it come  
    C 
down from above, 

verse 2 
Golden light, 
Live in love, 
Fmaj7 
Feel it fall, 
    C 
Down from above, 
Fmaj7 
Feel it fall. 
C 

SOLO 
   C 
e|-5-53----------------| 
B|-------5-53--35-5----| 2x 
G|---------------------| 
D|---------------------| 
A|---------------------| 
E|---------------------| 

Fmaj7 
C 
   Fmaj7 
e|-5-53----------------| 
B|-------5-53--3565----| 
G|---------------------| 
D|---------------------| 
A|---------------------| 
E|---------------------| 
Finger picking ends 
C 
Fmaj7 
C 
C/G 

verse 3 
C/G 
Hey I've been loved, 
               Fmaj7 
Hey one time I found  
C 
heaven, 
  Fmaj7 
I found 
C  
heaven 
  Fmaj7 
I found 
C 

OUTRO 
   C 
e|-5-53----------------| 
B|-------5-53--35-5----| 
G|---------------------| 
D|---------------------| 
A|---------------------| 
E|---------------------| 

C 
		  

Full key step upFull key step up
Half key step upHalf key step up
Half key step downHalf key step down
Full key step downFull key step down
hide glossary

See also:

tabs Pearl Jam - Rearviewmirror tabs Nirvana - Smells Like Teen Spirit tabs Nirvana - All apoligies (Ver.2) tabs Alice in Chains - Brother tabs Nirvana - Come as You Are (Completa) tabs Pearl Jam - Alive
e-chords

Other versions:

tabs Vetiver - Down From Above
auto scroll beats size up size down change color hide chords drawings
tab show chords e-chords YouTube Clip e-chords hide all tabs e-chords go to top tab

share