Venus

Shes So Disco

Venus

tabs

by  PAULLET3

save to print version add songbook text version e-mail correct tuner
chordsukulelecavacokeyboardtabbassdrumsharmonicaflute Guitar Pro
close

there isn't a video lesson for this song

chords

Shes So Disco

	  		



Violin pizzicato (0:00) 

e---------------| 
b---------------| 
g--3/5-5-5\3/8--| 
d---------------| 
a---------------| 
D---------------| 



Riff A (0:06) 

e-------------| 
b--0-/-3-/-5--| 
g--0-/-3-/-5--| 
d--0-/-3-/-5--| 
a-------------| 
D-------------| 



Verse (0:06) 

Riff A 
      A man with a tattoo 
      Made me a rendez-vous 
      He met Lolita in a bar in Soho 
Riff A 
      The glitter on her lips 
      The way she moved her hips 
      Dancing to the beat of the stereo 



PreChorus (0:20) 

She's so disco 



Verse (0:28) 

Riff A 
      He said : "You're gonna be my queen 
      Come on, shake my tambourine 
      You'll be the superstar of my floor show" 
Riff A 
      They drank a lot and jived 
      Ran away from the lights 
      Rushing at the doors of the Glass Bowl 



Chorus (0:43) 

e--------------------| 
b--5-5-5-5\3--3/5-5--| 
g--5-5-5-5\3--3/5-5--| 
d--5-5-5-5\3--3/5-5--| 
a--------------------| 
D--------------------|(last time hold the 3's longer) 

She's so disco, She's so disco 
She's so disco, She's soooooo disco 



Bridge (0:59) 

C C  D# F    D# 



Verse (1:10) 

Riff A 
      He took her for a ride 
      Kiss me, hold me tight 
      Don't resist, pump up the volume of the radio 
Riff A 
      It was the dead of night 
      Not a single soul in sight 
      Lolita yields to the killer gigolo 



PreChorus (1:25) 

e----------------------------| 
b----------------------------| 
g--12-12-10-12-10-9---7-9-7--| 
d----------------------------| 
a----------------------------| 
D----------------------------| 
She's so disco 



Verse (1:33) 

Riff A 
       A man with a tattoo 
       Made me a rendez-vous 
       He met Madonna in a bar in Soho 
Riff A 
       The glitter on her lips 
       The way she moved her hips 
       Dancing to the beat of the stereo 



Chorus (1:47) 

e--------------------| 
b--5-5-5-5\3--3/5-5--| 
g--5-5-5-5\3--3/5-5--| 
d--5-5-5-5\3--3/5-5--| 
a--------------------| 
D--------------------|(last time hold the 3's longer) 

She's so disco, She's so disco 
She's so disco, She's soooooo disco 
She's so disco, She's so disco 
She's so disco, She's soooooo disco 



Break (2:17) 



Violin pizzicato (2:23) 

e---------------| 
b---------------| 
g--3/5-5-5\3/8--| 
d---------------| 
a---------------| 
D---------------| 



Chords (2:30) 

C C  D# F    D# 



Chorus (2:45) 

e--------------------| 
b--5-5-5-5\3--3/5-5--| 
g--5-5-5-5\3--3/5-5--| 
d--5-5-5-5\3--3/5-5--| 
a--------------------| 
D--------------------| 

She's so disco, She's so disco 
She's so disco, She's soooooo disco 
She's so disco, She's so disco 
She's so disco, She's soooooo disco 
		  

Full key step upFull key step up
Half key step upHalf key step up
Half key step downHalf key step down
Full key step downFull key step down
hide glossary

See also:

tabs Deep Purple - Highway Star tabs Deep Purple - Smoke On The Water (Easy Intro) tabs Deep Purple - Space Truckin tabs Deep Purple - Rat Bat Blues tabs Deep Purple - Smoke On Water (ver. 2) tabs Deep Purple - Lazy
e-chords

Other versions:

tabs Venus - Shes So Disco
auto scroll beats size up size down change color hide chords drawings
tab show chords e-chords YouTube Clip e-chords hide all tabs e-chords go to top tab

share