Tyrannosaurus Rex

home > Tyrannosaurus Rex

King Of The Rumbling Spires Tab

Tyrannosaurus Rex

Difficulty: nolevelnolevel

by tamamoreira

tuner correct add songbook print version text version save to e-mail
chordsukulelecavacokeyboardtabbassdrumsharmonicsflute Guitar Pro
chords

King Of The Rumbling Spires

	  verse 1 

e|----------------------|--------------------------------------------| 
B|----------------------|--------------------------------------------| 
G|----------------------|--------------------------------------------| 
D|----------------------|--------------------------------------------| 
A|-3--------------------|----------2--------------------0------------| 
E|----------------------|-------------------------------------3-1-0--| 
   Light all the fires,   it's the King of the Rumbling Spires 
   C                             F 
e|-0-----------------------------1-----------------------------------| 
B|-1-----------------------------1-----------------------------------| 
G|-0-----------------------------2-----------------------------------| 
D|-2-----------------------------3--------------------2---3-2-0------| 
A|-3-----------------------------3-----------------------------------| 
E|-------------------------------1-----------------------------------| 
   Light all the fires, it's the King and he's coming home 

verse 2 

e|----------------------|--------------------------------------------| 
B|----------------------|--------------------------------------------| 
G|----------------------|--------------------------------------------| 
D|----------------------|--------------------------------------------| 
A|-3--------------------|----------2--------------------0------------| 
E|----------------------|-------------------------------------3-1-0--| 
   Light all the fires,   it's the King of the Rumbling Spires 
   C                             F 
e|-0-----------------------------1-----------------------------------| 
B|-1-----------------------------1-----------------------------------| 
G|-0-----------------------------2-----------------------------------| 
D|-2-----------------------------3--------------------2---3-2-0------| 
A|-3-----------------------------3-----------------------------------| 
E|-------------------------------1-----------------------------------| 
   Light all the fires, it's the King and he's coming home 

Bridge 
   F5                  F#5              Em 
e|--------------------------------------0-------------| 
B|--------------------------------------0-------------| 
G|--------------------------------------0-------------| 
D|-3--------------------4---------------2-------------| 
A|-3--------------------4---------------2-------------| 
E|-1--------------------2---------------0-------------|   
   We're so windy fair, priestess of my young soul 
   F5                 F#5              Em 
e|-------------------------------------0--------------| 
B|-------------------------------------0--------------| 
G|-------------------------------------0--------------| 
D|-3-------------------4---------------2--------------| 
A|-3-------------------4---------------2--------------| 
E|-1-------------------2---------------0--------------| 
   Mighty eagles pair, on the peace of your hair 

verse 3 

e|----------------------|--------------------------------------------| 
B|----------------------|--------------------------------------------| 
G|----------------------|--------------------------------------------| 
D|----------------------|--------------------------------------------| 
A|-3--------------------|----------2--------------------0------------| 
E|----------------------|-------------------------------------3-1-0--| 
   Light all the fires,   it's the King of the Rumbling Spires 
   C                             F 
e|-0-----------------------------1-----------------------------------| 
B|-1-----------------------------1-----------------------------------| 
G|-0-----------------------------2-----------------------------------| 
D|-2-----------------------------3--------------------2---3-2-0------| 
A|-3-----------------------------3-----------------------------------| 
E|-------------------------------1-----------------------------------| 
   Light all the fires, it's the King and he's coming home 

verse 4 

e|----------------------|--------------------------------------------| 
B|----------------------|--------------------------------------------| 
G|----------------------|--------------------------------------------| 
D|----------------------|--------------------------------------------| 
A|-3--------------------|----------2--------------------0------------| 
E|----------------------|-------------------------------------3-1-0--| 
   Light all the fires,   it's the King of the Rumbling Spires 
   C                             F 
e|-0-----------------------------1-----------------------------------| 
B|-1-----------------------------1-----------------------------------| 
G|-0-----------------------------2-----------------------------------| 
D|-2-----------------------------3--------------------2---3-2-0------| 
A|-3-----------------------------3-----------------------------------| 
E|-------------------------------1-----------------------------------| 
   Light all the fires, it's the King and he's coming home 

Bridge 
   F5                  F#5              Em 
e|--------------------------------------0-------------| 
B|--------------------------------------0-------------| 
G|--------------------------------------0-------------| 
D|-3--------------------4---------------2-------------| 
A|-3--------------------4---------------2-------------| 
E|-1--------------------2---------------0-------------|   
   We're so windy fair, priestess of my young soul 
   F5                 F#5              Em 
e|-------------------------------------0--------------| 
B|-------------------------------------0--------------| 
G|-------------------------------------0--------------| 
D|-3-------------------4---------------2--------------| 
A|-3-------------------4---------------2--------------| 
E|-1-------------------2---------------0--------------| 
   Mighty eagles pair, on the peace of your hair 

Verse 5 

e|----------------------|--------------------------------------------| 
B|----------------------|--------------------------------------------| 
G|----------------------|--------------------------------------------| 
D|----------------------|--------------------------------------------| 
A|-3--------------------|----------2--------------------0------------| 
E|----------------------|-------------------------------------3-1-0--| 
   Light all the fires,   it's the King of the Rumbling Spires 
   C                             F 
e|-0-----------------------------1-----------------------------------| 
B|-1-----------------------------1-----------------------------------| 
G|-0-----------------------------2-----------------------------------| 
D|-2-----------------------------3--------------------2---3-2-0------| 
A|-3-----------------------------3-----------------------------------| 
E|-------------------------------1-----------------------------------| 
   Light all the fires, it's the King and he's coming home 

Verse 6 

e|----------------------|--------------------------------------------| 
B|----------------------|--------------------------------------------| 
G|----------------------|--------------------------------------------| 
D|----------------------|--------------------------------------------| 
A|-3--------------------|----------2--------------------0------------| 
E|----------------------|-------------------------------------3-1-0--| 
   Light all the fires,   it's the King of the Rumbling Spires 
   C                             F 
e|-0-----------------------------1------------------------------------------| 
B|-1-----------------------------1------------------------------------------| 
G|-0-----------------------------2------------------------------------------| 
D|-2-----------------------------3--------------------2---3-2-0-------------| 
A|-3-----------------------------3------------------------------3---2---0---| 
E|-------------------------------1------------------------------------------| 
   Light all the fires, it's the King and he's coming home,     doi doi doi 
	  

there isn't a video lesson for this song

request
Full key step upFull key step up
Half key step upHalf key step up
Half key step downHalf key step down
Full key step downFull key step down
Search Paypal
auto scroll beats size up size down change color hide chords drawings
tab show chords e-chords YouTube Clip e-chords hide all tabs e-chords go to top tab