Twrp

Pale Blue Dot

Twrp

tabs

by  TERR_SCHMITZ

save to print version add songbook text version e-mail correct tuner
chordsukulelecavacokeyboardtabbassdrumsharmonicaflute Guitar Pro
close

there isn't a video lesson for this song

chords

Pale Blue Dot

	  		
Intro 0:53 

    Gtr 1 
  P.M 
e|----------------------------------------------------|----------------------------------------------------| 
B|-----------------------------------3.---------------|-----------------------------------3.---------------| 
G|--------3.----5.----3.----5.----3.-------3.----0L---|-(0.)---3.----5.----3.----5.----3.-------3.----0L---| 
D|----------------------------------------------------|----------------------------------------------------| 
A|----------------------------------------------------|----------------------------------------------------| 
E|----------------------------------------------------|----------------------------------------------------| 
 | 
 | 
 |  Gtr 2 
 |P.M. 
e|----------------------------------------------------|----------------------------------------------------| 
B|-----------------------------------3.---------------|-----------------------------------3.---------------| 
G|--------3.----5.----3.----5.----3.-------3.----0L---|-(0.)---3.----5.----3.----5.----3.-------3.----0L---| 
D|----------------------------------------------------|----------------------------------------------------| 
A|----------------------------------------------------|----------------------------------------------------| 
E|----------------------------------------------------|----------------------------------------------------| 

    Gtr 1 
e|----------------------------------------------------|----------------------------------------------------| 
B|-----------------------------------3.---------------|--------------------------7.-6.-------------6.------| 
G|--------3.----5.----3.----5.----3.-------3.----0L---|--0.----3.----5.----3.------------/8.---------------| 
D|----------------------------------------------------|----------------------------------------------------|x3 
A|----------------------------------------------------|----------------------------------------------------| 
E|----------------------------------------------------|----------------------------------------------------| 
 | 
 | 
 |  Gtr 2 
e|----------------------------------------------------|----------------------------------------------------| 
B|-----------------------------------3.---------------|----------------------------------------------------| 
G|--------3.----5.----3.----5.----3.-------3.----0L---|--0.----3.----5.----3.----------------------3.------| 
D|----------------------------------------------------|----------------------------------/5.---------------|x3 
A|----------------------------------------------------|----------------------------------------------------| 
E|----------------------------------------------------|----------------------------------------------------| 



Chorus 1:53 

    Gtr 1 
  P.M. 
e|----------------------------------------------------|----------------------------------------------------| 
B|----------------------------------------------------|----------------------------------------------------| 
G|----------------------------------------------------|-----------------------8.----8.---------------------| 
D|--10.10.8.-8.-10.10.---10.---10.8.-8.-10.10.8.------|--10.10.8.-8.-10.10.------------10.8.-10.10.8.------| 
A|----------------------------------------------------|----------------------------------------------------| 
E|----------------------------------------------------|----------------------------------------------------| 
 | 
 | 
 |  Gtr 2 
 |P.M. 
e|----------------------------------------------------|----------------------------------------------------| 
B|----------------------------------------------------|-----------------------8.----8.---------------------| 
G|--8.-8.-7.-7.-8.-8.----8.----8.-7.-7.-8.-8.-7.------|--8.-8.-7.-7.-8.-8.-------------8.-7.-8.-8.-7.------| 
D|----------------------------------------------------|----------------------------------------------------| 
A|----------------------------------------------------|----------------------------------------------------| 
E|----------------------------------------------------|----------------------------------------------------| 


    Gtr 1 
e|----------------------------------------------------|----------------------------------------------------| 
B|----------------------------------------------------|----------------------------------------------------| 
G|----------------------------------------------------|-----------------------8.----8.---------------------| 
D|--10.10.8.-8.-10.10.---10.---10.8.-8.-10.10.8.------|--10.10.8.-8.-10.10.------------10.8.-10.10.8.------| 
A|----------------------------------------------------|----------------------------------------------------| 
E|----------------------------------------------------|----------------------------------------------------| 
 | 
 | 
 |  Gtr 2 
e|----------------------------------------------------|----------------------------------------------------| 
B|----------------------------------------------------|-----------------------8.----8.---------------------| 
G|--8.-8.-7.-7.-8.-8.----8.----8.-7.-7.-8.-8.-7.------|--8.-8.-7.-7.-8.-8.-------------8.-7.-8.-8.-7.------| 
D|----------------------------------------------------|----------------------------------------------------| 
A|----------------------------------------------------|----------------------------------------------------| 
E|----------------------------------------------------|----------------------------------------------------| 


    Gtr 1 
e|----------------------------------------------------|----------------------------------------------------| 
B|----------------------------------------------------|----------------------------------------------------| 
G|----------------------------------------------------|--------8.-8.-10.10.---8.----8.---------------------| 
D|--10.10.8.-8.-10.10.---10.---10.8.-8.-10.10.8.------|--10.10.------------------------10.8.-10.10.8.------|x2 
A|----------------------------------------------------|----------------------------------------------------| 
E|----------------------------------------------------|----------------------------------------------------| 
 | 
 | 
 |  Gtr 2 
e|----------------------------------------------------|----------------------------------------------------| 
B|----------------------------------------------------|--------8.-8.-9.-9.----8.---------------------------| 
G|--8.-8.-7.-7.-8.-8.----8.----8.-7.-7.-8.-8.-7.------|--8.-8.----------------------10.8.-7.-8.-8.-7.------| 
D|----------------------------------------------------|----------------------------------------------------|x2 
A|----------------------------------------------------|----------------------------------------------------| 
E|----------------------------------------------------|----------------------------------------------------| 


Solo 3:47 

e|--12----12-13-15-13-12-13L--|--13-15-16-13s--------------|----------------------------| 
B|-----13---------------------|----------------------------|----------------------------| 
G|----------------------------|-----------------13-12-10---|--9--------10-12-10---------| 
D|----------------------------|----------------------------|--------------------12b(14)-| 
A|----------------------------|----------------------------|----------------------------| 
E|----------------------------|----------------------------|----------------------------| 


e|-----8----------------------------------------------| 
B|--8-----11-8----------------------------------------| 
G|--------------11-10-8-----10----8b(10)8-------------| 
D|-----------------------10---------------------------| 
A|----------------------------------------------------| 
E|----------------------------------------------------| 


e|-----------------------------------------------------------13-15----13-15---| 
B|-----------------------------------------13-15----13-15-16-------16---------| 
G|-----------------------12-13----12-13-15-------15---------------------------| 
D|-----12-13----12-13-15-------15---------------------------------------------| 
A|--15-------15---------------------------------------------------------------| 
E|----------------------------------------------------------------------------| 


e|--16-18-20-18-16----15------------------|--8--11-10-11----11-10-11-8--11-10-11----11-10-11---| 
B|-----------------18---------------------|--------------9-----------------------9-------------| 
G|----------------------------------------|----------------------------------------------------| 
D|----------------------------------------|----------------------------------------------------| 
A|----------------------------------------|----------------------------------------------------| 
E|----------------------------------------|----------------------------------------------------| 


e|--7--10-8--10----10--8--10----------------10-15-19-22-19-15-12---------|-------|----------------| 
B|--------------8------------------------12----------------------12------|--13L--|-(13)------13s--| 
G|------------------------------------12---------------------------------|-------|----------------| 
D|---------------------------------12------------------------------------|-------|----------------| 
A|------------------------------14---------------------------------------|-------|----------------| 
E|-----------------------------------------------------------------------|-------|----------------| 


e|----------|----------|------------------------------|-------| 
B|----------|-----6----|--6b(7)6b(7)6b(8)6b(8)--------|-(8)---| 
G|--5--7----|--8-------|------------------------------|-------| 
D|----------|----------|------------------------------|-------| 
A|----------|----------|------------------------------|-------| 
E|----------|----------|------------------------------|-------| 


Outro 4:37 

e|----------------------------------------------------|----------------------------------------------------| 
B|----------------------------------------------------|----------------------------------------------------| 
G|-----------------------8-----8--------8-------------|-----------------------8-----8--------8-----10------| 
D|--------------8--10----8-----8-----10-8-----10L-----|--(10)--------8--10----8-----8-----10-8-----10------| 
A|--------------8--10----------------10-------10L-----|--(10)--------8--10----------------10---------------| 
E|----------------------------------------------------|----------------------------------------------------| 


e|----------------------------------------------------|----------------------------------------------------| 
B|----------------------------------------------------|----------------------------------------------------| 
G|-----------------------8-----8--------8-------------|-----------------------8-----8--------8-----10------| 
D|--------------8--10----8-----8-----10-8-----10L-----|--(10)--------8--10----8-----8-----10-8-----10------| 
A|--------------8--10----------------10-------10L-----|--(10)--------8--10----------------10---------------| 
E|----------------------------------------------------|----------------------------------------------------| 


e|----------------------------------------------------|----------------------------------------------------| 
B|----------------------------------------------------|----------------------------------------------------| 
G|-----------------------8-----8--------8-------------|-----------------------8-----8--------8-----10------| 
D|--------------8--10----8-----8-----10-8-----10L-----|--(10)--------8--10----8-----8-----10-8-----10------|x4 
A|--------------8--10----------------10-------10L-----|--(10)--------8--10----------------10---------------| 
E|----------------------------------------------------|----------------------------------------------------| 


e|----------------------------|--------15----------------13-------13-------13L-----| 
B|--------------------16------|----------------------------------------------------| 
G|--15b(17)--17b(19)----------|----------------------------------------------------| 
D|----------------------------|----------------------------------------------------| 
A|----------------------------|----------------------------------------------------| 
E|----------------------------|----------------------------------------------------| 


e|--13-13-------18-------18-------18-------13---------|--15------| 
B|-----------------------------------------11---------|--13------| 
G|----------------------------------------------------|----------| 
D|----------------------------------------------------|----------| 
A|----------------------------------------------------|----------| 
E|----------------------------------------------------|----------| 



************************************ 

|b    Bend   
|(n)  Ghost note 
|/    Slide up 
|.    Staccato  
|L    Tied note 

************************************ 
		  

See also:

tabs Ira! - Poço de Sensibilidade (Solo - Acustico Mtv) tabs Deep Purple - Gypsy Kiss tabs Ira! - Envelheço na Cidade (intro) tabs Deep Purple - Smoke on the Water (solo) tabs Ira! - Eu Quero Sempre Mais (Com Pitty, intro) tabs Ira! - Prisão das Ruas
e-chords

Other versions:

tabs Twrp - Pale Blue Dot
auto scroll beats size up size down change color hide chords drawings
tab show chords e-chords YouTube Clip e-chords hide all tabs e-chords go to top tab

share