Twrp

No Pants Dance Feat Nsp

Twrp

tabs

by  TERCMORAES

save to print version add songbook text version e-mail correct tuner
chordsukulelecavacokeyboardtabbassdrumsharmonicaflute Guitar Pro
close

there isn't a video lesson for this song

chords

No Pants Dance Feat Nsp

	  		
Intro (0:00) 

    ^               ^               ^       ^       ^       ^ 
e|--0L---|-(0)---|--0L---|-(0)---|--0----|--0----|--0----|--0----|| 
B|--5L---|-(5)---|--5L---|-(5)---|--5----|--5----|--5----|--5----|| 
G|--4L---|-(4)---|--4L---|-(4)---|--4----|--4----|--3----|--4---o|| 
D|--6L---|-(6)---|--4L---|-(4)---|--6----|--6----|--6----|--6---o|| x3 
A|--4L---|-(4)---|--4L---|-(4)---|--4----|--4----|--4----|--4----|| 
E|-------|-------|-------|-------|-------|-------|-------|-------|| 


Verse (1:02) 

e|--------9.-------9.-------9.----9.------------------|--------7.-------7.-------7.----7.------------------| 
B|--------9.-------9.-------9.----9.------------------|--------9.-------9.-------9.----9.------------------| 
G|--------9.-------9.-------9.----9.------------------|--------9.-------9.-------9.----9.------------------| 
D|----------------------------------------------------|----------------------------------------------------| 
A|----------------------------------------------------|----------------------------------------------------| 
E|----------------------------------------------------|----------------------------------------------------| 

e|--------6--------6--------6.----6.----------7.------|--------6.-------6.-------6--6--6.------------------| 
B|--------7--------7--------7.----7.----------7.------|--------7.-------7.-------7--7--7.------------------| 
G|--------6--------6--------6.----6.----------6.------|--------6.-------6.-------6--6--6.------------------| 
D|----------------------------------------------------|----------------------------------------------------| 
A|----------------------------------------------------|----------------------------------------------------| 
E|----------------------------------------------------|----------------------------------------------------| 

e|--------9.-------9.-------9.----9.------------------|--------7.-------7.-------7.----7.------------------| 
B|--------9.-------9.-------9.----9.------------------|--------9.-------9.-------9.----9.------------------| 
G|--------9.-------9.-------9.----9.------------------|--------9.-------9.-------9.----9.------------------| 
D|----------------------------------------------------|----------------------------------------------------| 
A|----------------------------------------------------|----------------------------------------------------| 
E|----------------------------------------------------|----------------------------------------------------| 

e|--------6.-------6.-------6.----6.----------7.------|--------4-----4-----------4-----4------------------|| 
B|--------7.-------7.-------7.----7.----------7.------|--------4-----4-----------4-----4------------------|| 
G|--------6.-------6.-------6.----6.----------6.------|--------6-----6-----------5-----5------------------|| 
D|----------------------------------------------------|--------6-----6-----------6-----6------------------|| 
A|----------------------------------------------------|---------------------------------------------------|| 
E|----------------------------------------------------|---------------------------------------------------|| 


Chorus (1:16) 

e|--4----|--2----|--2L---|-(2)---|--4----|--2----|--2----|--4----|--4----|--2----|--2L---|-(2)---| 
B|--5----|--4----|--2L---|-(2)---|--5----|--4----|--2----|--4----|--5----|--4----|--2L---|-(2)---| 
G|--6----|--4----|--3L---|-(3)---|--6----|--4----|--3----|--5----|--6----|--4----|--3L---|-(3)---| 
D|--6----|--4----|--4L---|-(4)---|--6----|--4----|--4----|--6----|--6----|--4----|--4L---|-(4)---| 
A|--4----|--2----|--4L---|-(4)---|--4----|--2----|--4----|--6----|--4----|--2----|--4L---|-(4)---| 
E|-------|-------|--2L---|-(2)---|-------|-------|--2----|--4----|-------|-------|--2L---|-(2)---| 

e|--4----|--2----|----------------------------|--------0-----------2-------|| 
B|--5----|--4----|--------2-----------4-------|-----2-----2-----4-----4----|| 
G|--6----|--4----|-----2-----2-----4-----4----|----------------------------|| 
D|--6----|--4----|----------------------------|----------------------------|| 
A|--4----|--2----|----------------------------|--0-----------2-------------|| 
E|-------|-------|--2-----------4-------------|----------------------------|| 


Verse (1:47) 

e|--------9.-------9.-------9.----9.------------------|--------7.-------7.-------7.----7.------------------| 
B|--------9.-------9.-------9.----9.------------------|--------9.-------9.-------9.----9.------------------| 
G|--------9.-------9.-------9.----9.------------------|--------9.-------9.-------9.----9.------------------| 
D|----------------------------------------------------|----------------------------------------------------| 
A|----------------------------------------------------|----------------------------------------------------| 
E|----------------------------------------------------|----------------------------------------------------| 

e|--------6--------6--------6.----6.----------7.------|--------6.-------6.-------6--6--6.------------------| 
B|--------7--------7--------7.----7.----------7.------|--------7.-------7.-------7--7--7.------------------| 
G|--------6--------6--------6.----6.----------6.------|--------6.-------6.-------6--6--6.------------------| 
D|----------------------------------------------------|----------------------------------------------------| 
A|----------------------------------------------------|----------------------------------------------------| 
E|----------------------------------------------------|----------------------------------------------------| 

e|--------9.-------9.-------9.----9.------------------|--------7.-------7.-------7.----7.------------------| 
B|--------9.-------9.-------9.----9.------------------|--------9.-------9.-------9.----9.------------------| 
G|--------9.-------9.-------9.----9.------------------|--------9.-------9.-------9.----9.------------------| 
D|----------------------------------------------------|----------------------------------------------------| 
A|----------------------------------------------------|----------------------------------------------------| 
E|----------------------------------------------------|----------------------------------------------------| 

  x2 
e|--------6.-------6.-------6.----6.----------7.------|--------4-----4-----------4-----4------------------|| 
B|--------7.-------7.-------7.----7.----------7.------|--------4-----4-----------4-----4------------------|| 
G|--------6.-------6.-------6.----6.----------6.------|--------6-----6-----------5-----5-----------------o|| 
D|----------------------------------------------------|--------6-----6-----------6-----6-----------------o|| 
A|----------------------------------------------------|---------------------------------------------------|| 
E|----------------------------------------------------|---------------------------------------------------|| 


Synth Solo (2:18) 

    ^               ^               ^       ^       ^       ^ 
e|--0L---|-(0)---|--0L---|-(0)---|--0----|--0----|--0----|--0----| 
B|--5L---|-(5)---|--5L---|-(5)---|--5----|--5----|--5----|--5----| 
G|--4L---|-(4)---|--4L---|-(4)---|--4----|--4----|--3----|--4----| 
D|--6L---|-(6)---|--4L---|-(4)---|--6----|--6----|--6----|--6----| 
A|--4L---|-(4)---|--4L---|-(4)---|--4----|--4----|--4----|--4----| 
E|-------|-------|-------|-------|-------|-------|-------|-------| 

    ^       ^       ^                                    ^       ^       ^       ^ 
e|--0L---|-(0)---|--0L---|-(0L)--(0)------------------|--0----|--0----|--0----|--0----|| 
B|--5L---|-(5)---|--5L---|-(5L)--(5)------------------|--5----|--5----|--5----|--5----|| 
G|--4L---|-(4)---|--4L---|-(4L)--(4)------------------|--4----|--4----|--3----|--4----|| 
D|--6L---|-(6)---|--4L---|-(4L)--(4)------------------|--6----|--6----|--6----|--6----|| 
A|--4L---|-(4)---|--4L---|-(4L)--(4)------------------|--4----|--4----|--4----|--4----|| 
E|-------|-------|-------|----------------------------|-------|-------|-------|-------|| 


Bridge (3:03) 

e|----------------------------------------------------|----------------------------------------------------| 
B|----------------------------------------------------|----------------------------------------------------| 
G|----------------------------------------------------|----------------------------------------------------| 
D|----------------------------------------------------|----------------------------------------------------| 
A|-----------7-----------------------------------7----|-----------------------------------7--------7--9----| 
E|--9--9--9-----------9--9--7--9--------9--9--9-------|--------9--9--7--9-----9-----7--9--------9----------| 

 x2 
e|----------------------------------------------------|----------------------------------------------------| 
B|----------------------------------------------------|----------------------------------------------------| 
G|----------------------------------------------------|----------------------------------------------------| 
D|----------------------------------------------------|----------------------------------------------------| 
A|--------9-----9-----------7--7--7--7----------------|--------9-----9-----------7--7--7--7----------------|  
E|-----------------------------------------9--9--9----|-----------------------------------------9--7-------| 

e|----------------------------------------------------|----------------------------------------------------| 
B|-----------9L---(9)----------------------------9L---|-(9)------------------------------------------------| 
G|-----------9L---(9)----------------------------9L---|-(9)------------------------------------------------| 
D|--11-11-11----------11-11-9--11L---11-11-11-11------|--------11-11-9--11L---11---------------------------| 
A|----------------------------------------------------|-----------------------------------7--------7--9----| 
E|----------------------------------------------------|-----------------------------7--9--------9----------| 

e|----------------------------------------------------|----------------------------------------------------| 
B|----------------------------------------------------|----------------------------------------------------| 
G|----------------------------------------------------|----------------------------------------------------| 
D|----------------------------------------------------|----------------------------------------------------| 
A|--------9-----9-----------7--7--7--7----------------|--------9-----9-----------7--7--7--7----------------| 
E|-----------------------------------------9--9--9----|-----------------------------------------9--7-------| 

e|----------------------------------------------------|| 
B|----------------------------------------------------|| 
G|----------------------------------------------------|| 
D|----------------------------------------------------|| 
A|--------------7-------------------------------------|| 
E|--9--9--9--9--------9--9--7--9----------------------|| 


Chorus 3:28) 

e|--4----|--2----|--2L---|-(2)---|--4----|--2----|--2----|--4----|--4----|--2----|--2L---|-(2)---| 
B|--5----|--4----|--2L---|-(2)---|--5----|--4----|--2----|--4----|--5----|--4----|--2L---|-(2)---| 
G|--6----|--4----|--3L---|-(3)---|--6----|--4----|--3----|--5----|--6----|--4----|--3L---|-(3)---| 
D|--6----|--4----|--4L---|-(4)---|--6----|--4----|--4----|--6----|--6----|--4----|--4L---|-(4)---| 
A|--4----|--2----|--4L---|-(4)---|--4----|--2----|--4----|--6----|--4----|--2----|--4L---|-(4)---| 
E|-------|-------|--2L---|-(2)---|-------|-------|--2----|--4----|-------|-------|--2L---|-(2)---| 

e|--4----|--2----|----------------------------|--------0-----------2-------| 
B|--5----|--4----|--------2-----------4-------|-----2-----2-----4-----4----| 
G|--6----|--4----|-----2-----2-----4-----4----|----------------------------| 
D|--6----|--4----|----------------------------|----------------------------| 
A|--4----|--2----|----------------------------|--0-----------2-------------| 
E|-------|-------|--2-----------4-------------|----------------------------| 

e|--2----|--2----|--2-------------------------------------------------|| 
B|--4----|--2----|--2-------------------------------------------------|| 
G|--4----|--3----|--3-------------------------------------------------|| 
D|--4----|--4----|--4-------------------------------------------------|| 
A|--2----|--4----|--4-------------------------------------------------|| 
E|-------|--2----|--2-------------------------------------------------|| 


Outro 4:05) 

e|--4----|--2L-----(2)-------------|----------------------------|----------------------------|| 
B|--5----|--4L-----(4)-------------|----------------------------|----------------------------|| 
G|--6----|--4L-----(4)-------------|----------------------------|----------------------------|| 
D|--6----|--4L-----(4)--------2L---|-(2)-------2-----------2L---|-(2)-------6-----4----------|| 
A|--4----|--2L-----(2)--4--4-------|-----4--4--------4--4-------|-----4--4-------------------|| 
E|-------|-------------------------|----------------------------|----------------------------||  
		  

See also:

tabs Ira! - Prisão das Ruas tabs Deep Purple - Highway Star tabs Deep Purple - Clearly Quite Absurd tabs Drivin' N' Cryin' - Honeysuckle Blue tabs Deep Purple - Ted The Mechanic tabs Deep Purple - Smoke on the Water (correct)
e-chords

Other versions:

tabs Twrp - No Pants Dance Feat Nsp
auto scroll beats size up size down change color hide chords drawings
tab show chords e-chords YouTube Clip e-chords hide all tabs e-chords go to top tab

share