Twrp

Believe In Your Dreams

Twrp

tabs

by  TARIKIKE

save to print version add songbook text version e-mail correct tuner
chordsukulelecavacokeyboardtabbassdrumsharmonicaflute Guitar Pro
close

there isn't a video lesson for this song

chords

Believe In Your Dreams

	  		
Intro 0:32 

e|----------------|----------------|----------------------------------------------------| 
B|----------------|----------------|----------------------------------------------------| 
G|--------5-------|--------5-------|----------------------------------------------------| 
D|--7--5--5--5----|--7--5--5--5----|--3L----------------------3-------------------------| 
A|--7--5--3--5----|--7--5--3--5----|--3L----------------------3-----0--2--3--2--0-------| 
E|--5--3-----3----|--5--3-----3----|--1L----------------------1--------------------3----| 


e|----------------------------------------------------|----------------------------------------------------| 
B|----------------------------------------------------|----------------------------------------------------| 
G|----------------------------------------------------|----------------------------------------------------| 
D|--3L----------------------3-------------------------|--5L----------------------5-------------------------| 
A|--3L----------------------3-----0--2--3--2--0-------|--5L----------------------5-----0--2--3--2--0-------| 
E|--1L----------------------1-------------------------|--3L----------------------3-------------------------| 


e|----------------------------| 
B|----------------------------| 
G|----------------------------| 
D|-----5--5--5--5--5--5--5----| 
A|-----5--5--5--5--5--5--5----| 
E|-----3--3--3--3--3--3--3----| 


Intro Solo 0:48 

e|----------------|----------------------------|----------------------------|----------------------------| 
B|--------15b15b--|--15b---13------------------|--------------12-13-12------|----------------------------| 
G|----------------|-----------14L14L-----------|--14L---14-14----------12---|--------------------12-14---| 
D|----------------|----------------------------|----------------------------|--14------------------------| 
A|----------------|----------------------------|----------------------------|----------------------------| 
E|----------------|----------------------------|----------------------------|----------------------------| 


e|----------|--0--0--0--0----|----------------------------------------------------| 
B|----------|--5--3--1--0----|--1h----0-------------------------------------------| 
G|--14------|----------------|--------------2h----0-------------------------------| 
D|-----12---|----------------|--------------------------2L----------2-------------| 
A|----------|----------------|----------------------------------------------------| 
E|----------|----------------|----------------------------------------------------| 


e|--------8--------8--------8--------8--------8-------|--12h8h-10h8-----8----------------------------------| 
B|--8h-10----8h-10----8h-10----8h-10----8h-10---------|--------------10----10L---------------------10s-----| 
G|----------------------------------------------------|----------------------------------------------------| 
D|----------------------------------------------------|----------------------------------------------------| 
A|----------------------------------------------------|----------------------------------------------------| 
E|----------------------------------------------------|----------------------------------------------------| 


Mid-verse 1:21 

e|--8--8--8--8--x--x--7--7--7--x--x--x--5--5--5--5----|--x--x--x--x--x--x--x--x--5--x--x--x--7--x--x--x----| 
B|--10-10-10-10-x--x--8--8--8--x--x--x--5--5--5--5----|--x--x--x--x--x--x--x--x--5--x--x--x--8--x--x--x----| 
G|--9--9--9--9--x--x--7--7--7--x--x--x--5--5--5--5----|--x--x--x--x--x--x--x--x--5--x--x--x--7--x--x--x----| 
D|--7--7--7--7--x--x--7--7--7--x--x--x--7--7--7--7----|--x--x--x--x--x--x--x--x--7--x--x--x--7--x--x--x----| 
A|--------------x--x-----------x--x--x----------------|----------------------------------------------------| 
E|--------------x--x-----------x--x--x----------------|----------------------------------------------------| 


e|--8--8--8--8--x--x--7--7--7--x--x--x--5--5--5--5----|--x--x--x--x--x--x--x--x--5--x--x--x--7--x--x--x----| 
B|--10-10-10-10-x--x--8--8--8--x--x--x--6--6--6--6----|--x--x--x--x--x--x--x--x--6--x--x--x--8--x--x--x----| 
G|--9--9--9--9--x--x--7--7--7--x--x--x--5--5--5--5----|--x--x--x--x--x--x--x--x--5--x--x--x--7--x--x--x----| 
D|--7--7--7--7--x--x--9--9--9--x--x--x--7--7--7--7----|--x--x--x--x--x--x--x--x--7--x--x--x--7--x--x--x----| 
A|--------------x--x-----------x--x--x----------------|----------------------------------------------------| 
E|--------------x--x-----------x--x--x----------------|----------------------------------------------------| 


e|--8--8--8--8--x--x--7--7--7--x--x--x--8--8--8--8----|--x--x--x--x--x--x--x--x--8--x--x--x--7--x--x--x----| 
B|--10-10-10-10-x--x--8--8--8--x--x--x--10-10-10-10---|--x--x--x--x--x--x--x--x--10-x--x--x--8--x--x--x----| 
G|--9--9--9--9--x--x--7--7--7--x--x--x--9--9--9--9----|--x--x--x--x--x--x--x--x--9--x--x--x--7--x--x--x----| 
D|--7--7--7--7--x--x--7--7--7--x--x--x--7--7--7--7----|--x--x--x--x--x--x--x--x--7--x--x--x--9--x--x--x----| 
A|--------------x--x-----------x--x--x----------------|----------------------------------------------------| 
E|--------------x--x-----------x--x--x----------------|----------------------------------------------------| 


e|--8--8--8--8--x--x--7--7--7--x--x--x--5--5--5--5----|--x--x--x--x--x--x--x--x--5--x--x--x--7--x--x--x----| 
B|--10-10-10-10-x--x--8--8--8--x--x--x--7--7--7--7----|--x--x--x--x--x--x--x--x--7--x--x--x--8--x--x--x----| 
G|--9--9--9--9--x--x--7--7--7--x--x--x--7--7--7--7----|--x--x--x--x--x--x--x--x--7--x--x--x--7--x--x--x----| 
D|--7--7--7--7--x--x--9--9--9--x--x--x--7--7--7--7----|--x--x--x--x--x--x--x--x--7--x--x--x--9--x--x--x----| 
A|--------------x--x-----------x--x--x----------------|----------------------------------------------------| 
E|--------------x--x-----------x--x--x----------------|----------------------------------------------------| 


e|--8--8--8--8--x--x--7--7--7--x--x--x--5--5--5--5----|--x--x--x--x--x--x--x--x--5--x--x--x--7--x--x--x----| 
B|--10-10-10-10-x--x--8--8--8--x--x--x--5--5--5--5----|--x--x--x--x--x--x--x--x--5--x--x--x--8--x--x--x----| 
G|--9--9--9--9--x--x--7--7--7--x--x--x--5--5--5--5----|--x--x--x--x--x--x--x--x--5--x--x--x--7--x--x--x----| 
D|--7--7--7--7--x--x--7--7--7--x--x--x--7--7--7--7----|--x--x--x--x--x--x--x--x--7--x--x--x--7--x--x--x----| 
A|--------------x--x-----------x--x--x----------------|----------------------------------------------------| 
E|--------------x--x-----------x--x--x----------------|----------------------------------------------------| 


e|--8--8--8--8--x--x--7--7--7--x--x--x--5--5--5--5----|--x--x--x--x--x--x--x--x--5--x--x--x--7--x--x--x----| 
B|--10-10-10-10-x--x--8--8--8--x--x--x--6--6--6--6----|--x--x--x--x--x--x--x--x--6--x--x--x--8--x--x--x----| 
G|--9--9--9--9--x--x--7--7--7--x--x--x--5--5--5--5----|--x--x--x--x--x--x--x--x--5--x--x--x--7--x--x--x----| 
D|--7--7--7--7--x--x--9--9--9--x--x--x--7--7--7--7----|--x--x--x--x--x--x--x--x--7--x--x--x--7--x--x--x----| 
A|--------------x--x-----------x--x--x----------------|----------------------------------------------------| 
E|--------------x--x-----------x--x--x----------------|----------------------------------------------------| 


e|--8--8--8--8--x--x--7--7--7--x--x--x--8--8--8--8----|--x--x--x--x--x--x--x--x--8--x--x--x--7--x--x--x----| 
B|--10-10-10-10-x--x--8--8--8--x--x--x--10-10-10-10---|--x--x--x--x--x--x--x--x--10-x--x--x--8--x--x--x----| 
G|--9--9--9--9--x--x--7--7--7--x--x--x--9--9--9--9----|--x--x--x--x--x--x--x--x--9--x--x--x--7--x--x--x----| 
D|--7--7--7--7--x--x--7--7--7--x--x--x--7--7--7--7----|--x--x--x--x--x--x--x--x--7--x--x--x--9--x--x--x----| 
A|--------------x--x-----------x--x--x----------------|----------------------------------------------------| 
E|--------------x--x-----------x--x--x----------------|----------------------------------------------------| 


e|--8--8--8--8--------7--7--7-----------5--5--5--5----|--x--x--x--x--x--x--x--x--5--x--x--x--5--x--x--x----| 
B|--10-10-10-10-------8--8--8-----------7--7--7--7----|--x--x--x--x--x--x--x--x--7--x--x--x--7--x--x--x----| 
G|--9--9--9--9--------7--7--7-----------7--7--7--7----|--x--x--x--x--x--x--x--x--7--x--x--x--7--x--x--x----| 
D|--7--7--7--7--------9--9--9-----------7--7--7--7----|--x--x--x--x--x--x--x--x--7--x--x--x--7--x--x--x----| 
A|----------------------------------------------------|----------------------------------------------------| 
E|----------------------------------------------------|----------------------------------------------------| 


Synth Solo 1:56 

e|--------------------20------|----------------------------| 
B|--------------22b------22L--|--22-22L---------22---------| 
G|----------------------------|----------------------------| 
D|----------------------------|----------------------------| 
A|----------------------------|----------------------------| 
E|----------------------------|----------------------------| 


e|----------------------------|----------------------------| 
B|----------------------------|----------------------------| 
G|----------------------------|----------------------------| 
D|--3--3--3--3--3--3--3--3----|--3--3--3--3--2--2--2--2----| 
A|--3--3--3--3--3--3--3--3----|--3--3--3--3--2--2--2--2----| 
E|--1--1--1--1--1--1--1--1----|--1--1--1--1--0--0--0--0----| 


e|----------------------------|----------------------------| 
B|----------------------------|----------------------------| 
G|--7--7--7--7--7--7--7--7----|--7--7--7--7--7--7--7--7----| 
D|--7--7--7--7--7--7--7--7----|--7--7--7--7--7--7--7--7----| 
A|--5--5--5--5--5--5--5--5----|--5--5--5--5--5--5--5--5----| 
E|----------------------------|----------------------------| 


e|----------------------------|----------------------------| 
B|----------------------------|----------------------------| 
G|----------------------------|----------------------------| 
D|--5--5--5--5--5--5--5--5----|--3--3--3--3--3--3--3--3----| 
A|--5--5--5--5--5--5--5--5----|--3--3--3--3--3--3--3--3----| 
E|--3--3--3--3--3--3--3--3----|--1--1--1--1--1--1--1--1----| 


e|----------------------------|----------------------------| 
B|----------------------------|----------------------------| 
G|----------------------------|-----7--7--7--7--7--7--7----| 
D|--7--7--7--7--7--7--7-------|-----7--7--7--7--7--7--7----| 
A|--7--7--7--7--7--7--7-------|-----5--5--5--5--5--5--5----| 
E|--5--5--5--5--5--5--5-------|----------------------------| 


Guitar Solo 2:16 

    Gtr 1 
e|-----12----12----12----12----12----12----12----12---|-----8-----8-----8-----8-----10----10----10----10---| 
B|--------15----13----12----------12----13------------|--------10----8-----------------12----10------------| 
G|--------------------------14----------------14------|--------------------10----------------------12------| 
D|----------------------------------------------------|----------------------------------------------------| 
A|----------------------------------------------------|----------------------------------------------------| 
E|----------------------------------------------------|----------------------------------------------------| 
 | 
 | 
 |  Gtr II 
e|----------------------------------------------------|----------------------------------------------------| 
B|----------------------------------------------------|----------------------------------------------------| 
G|----------------------------------------------------|----------------------------------------------------| 
D|--7-----------5----7---------------------------3L---|-(3)----------3------------5-----------5------------| 
A|--7-----------5----7---------------------------3L---|-(3)----------3------------5-----------5------------| 
E|----------------------------------------------------|----------------------------------------------------| 


    Gtr I 
e|-----12----12----12----12----12----12----12----12---|-----8-----8-----8-----8-----10----10----10----10---| 
B|--------15----13----12----------12----13------------|--------10----8-----------------12----10------------| 
G|--------------------------14----------------14------|--------------------10----------------------12------| 
D|----------------------------------------------------|----------------------------------------------------|x8 
A|----------------------------------------------------|----------------------------------------------------| 
E|----------------------------------------------------|----------------------------------------------------| 
 | 
 | 
 |  Gtr II 
e|----------------------------------------------------|----------------------------------------------------| 
B|----------------------------------------------------|----------------------------------------------------| 
G|-----------------------------------------------5L---|-(5)----------5------------4------5----4------------| 
D|--7-----------5----7---------------------------5L---|-(5)----------5------------5------5----5------------|x8 
A|--7-----------5----7--------------------------------|----------------------------------------------------| 
E|----------------------------------------------------|----------------------------------------------------| 


Mid-Verse Breakdown 2:50 

e|----------------------------|-----------0-----------------0--------------0-------| 
B|----------------------------|--1-----------------1-----------------1-------------| 
G|----------------------------|----------------------------------------------------| 
D|-----------------------2----|----------------------------------------------------| 
A|----------------------------|----------------------------------------------------| 
E|----------------------------|----------------------------------------------------| 


e|----------------------------|-----------0-----------------0--------------0-------|-------| 
B|----------------------------|--1-----------------1-----------------1-------------|-------| 
G|--2L----------2L----2-------|----------------------------------------------------|--2----| 
D|-----------------------2----|----------------------------------------------------|-------| 
A|----------------------------|----------------------------------------------------|-------| 
E|----------------------------|----------------------------------------------------|-------| 


Outro 3:28 

e|----------------------------------------------------|----------------------------------------------------| 
B|----------------------------------------------------|----------------------------------------------------| 
G|----------------------------------------------------|----------------------------------------------------| 
D|--7L----------------------7-----7--9--10-9--7--5----|--------------------------------7--9--10-9--7-------| 
A|--7L----------------------7-------------------------|--10L---------------------10------------------------| 
E|----------------------------------------------------|--10L---------------------10------------------------| 


e|----------------------------------------------------|----------------| 
B|----------------------------------------------------|----------------| 
G|----------------------------------------------------|----------------| 
D|--------------------------------7--9--10-9--7-------|----------------| x8 
A|--9L----------------------9-------------------------|--8L----8--10---| 
E|--10L---------------------10------------------------|--8L----8--10---| 


e|-----------------------8L---|-(8L-)-|-(8-)--|| 
B|-----------------------10L--|-(10L)-|-(10)--|| 
G|-----------------------9L---|-(9L-)-|-(9-)--|| 
D|--7--7--5--7-----------10---|-(10L)-|-(10)--|| 
A|--7--7--5--7-----------10L--|-(10L)-|-(10)--|| 
E|--5--5--3--5-----------8----|-(8L-)-|-(8-)--|| 


*************************************************************************** 

L - tied note 
x - dead note 
h - hammer on/pull off 
b - bend 
s - slide 
~ - vibrato 
g - ghost note 
> - accentuated note 
t - trill 
M - palm mute 
. - staccato 
P - popping (bass) 
S - slapping (bass) 
+ - tapping 
W - wide vibrato 
< - fade in 
w - whammy bar 
= - tremolo picking 
v - brush up 
^ - brush down 
V - pick stroke up 
n - pick stroke down 

*************************************************************************** 
		  

See also:

tabs Ira! - Poço de Sensibilidade (Solo - Acustico Mtv) tabs Deep Purple - Gypsy Kiss tabs Ira! - Envelheço na Cidade (intro) tabs Deep Purple - Smoke on the Water (solo) tabs Ira! - Eu Quero Sempre Mais (Com Pitty, intro) tabs Ira! - Prisão das Ruas
e-chords

Other versions:

tabs Twrp - Believe In Your Dreams
auto scroll beats size up size down change color hide chords drawings
tab show chords e-chords YouTube Clip e-chords hide all tabs e-chords go to top tab

share