save to print version add songbook text version e-mail correct tuner
chordsukulelecavacokeyboardtabbassdrumsharmonicaflute Guitar Pro
close

there isn't a video lesson for this song

chords

Star Sky

	  		
Intro Repeat this twice. 

e|10-----------------------8-|-10-----------------------8-|---------------------8-|---------13----------12-8-| 
B|---10-10-10-8-10----8-10---|----10-10-10-8-------8-10---|-8-8-8-8----8------8---|-10-8-10----10-8-6-8------| 
G|-----------------10--------|---------------10-10--------|---------10---9-10-----|--------------------------| 
D|---------------------------|----------------------------|-----------------------|--------------------------| 
A|---------------------------|----------------------------|-----------------------|--------------------------| 
E|---------------------------|----------------------------|-----------------------|--------------------------| 


First Chorus 

e|10-----------------------8-|-10-----------------------8-|---------------------8-|---------13----------12-8-| 
B|---10-10-10-8-10----8-10---|----10-10-10-8-------8-10---|-8-8-8-8----8------8---|-10-8-10----10-8-6-8------| 
G|-----------------10--------|---------------10-10--------|---------10---9-10-----|--------------------------| 
D|---------------------------|----------------------------|-----------------------|--------------------------| 
A|---------------------------|----------------------------|-----------------------|--------------------------| 
E|---------------------------|----------------------------|-----------------------|--------------------------| 

e|10-----------------------8-|-10---------------------|------------------------| 
B|---10-10-10-8-10----8-10---|----8-8-6-10-8---6-8-10-|----------------------8-| 
G|-----------------10--------|---------------9--------|-10-9-7-10-9-7-7-9-10---| 
D|---------------------------|------------------------|------------------------| 
A|---------------------------|------------------------|------------------------| 
E|---------------------------|------------------------|------------------------| 

e|--------------------------| 
B|--------------------------| 
G|-9-7-5-9-7-5-7-9-10-9-5-7-| 
D|--------------------------| 
A|--------------------------| 
E|--------------------------| 

e|----10-12-13----10-12-13----13----12-10----10-| 
B|-10----------10----------10----10-------13----| 
G|----------------------------------------------| x2 
D|----------------------------------------------| 
A|----------------------------------------------| 
E|----------------------------------------------| 


Second Chorus and Instrumental Solo (3:05 - 4:05) 3:46 rn 

e|10-----------------------8-|-10-----------------------8-|---------------------8-|---------13----------12-8-| 
B|---10-10-10-8-10----8-10---|----10-10-10-8-------8-10---|-8-8-8-8----8------8---|-10-8-10----10-8-6-8------| 
G|-----------------10--------|---------------10-10--------|---------10---9-10-----|--------------------------| 
D|---------------------------|----------------------------|-----------------------|--------------------------| 
A|---------------------------|----------------------------|-----------------------|--------------------------| 
E|---------------------------|----------------------------|-----------------------|--------------------------| 

e|10-----------------------8-|-10---------------------|------------------------| 
B|---10-10-10-8-10----8-10---|----8-8-6-10-8---6-8-10-|----------------------8-| 
G|-----------------10--------|---------------9--------|-10-9-7-10-9-7-7-9-10---| 
D|---------------------------|------------------------|------------------------| 
A|---------------------------|------------------------|------------------------| 
E|---------------------------|------------------------|------------------------| 

e|--------------------------| 
B|--------------------------| 
G|-9-7-5-9-7-5-7-9-10-9-5-7-| 
D|--------------------------| 
A|--------------------------| 
E|--------------------------| 

e|----------------------|----------------------------|--------------------------| 
B|----------------------|----------------------------|---------------------8-10-| 
G|---7-9-10-10-9-7----7-|---7-9-10-10-9-10-12-10-9-7-|---7-9-10-10-10-9-10---10-| 
D|-7---------------10---|-7--------------------------|-7------------------------| 
A|----------------------|----------------------------|--------------------------| 
E|----------------------|----------------------------|--------------------------| 


e|--------------------10-11-|-8-10-11-11-11p10-8----|-8-10-11-11-11p10-11-13-15-| 
B|----8-10-10-8-10-12-------|--------------------11-|---------------------------| 
G|-10---10-10---------------|-----------------------|---------------------------| 
D|--------------------------|-----------------------|---------------------------| 
A|--------------------------|-----------------------|---------------------------| 
E|--------------------------|-----------------------|---------------------------| 

e|-15-16-18-18-18-16-15-|-13-11-10-11-13-13-11-10-10-10-8-6-| 
B|----------------------|-----------------------------------| 
G|----------------------|-----------------------------------| 
D|----------------------|-----------------------------------| 
A|----------------------|-----------------------------------| 
E|----------------------|-----------------------------------| 

************************************ 
| h   Hammer-on 
************************************ 
		  

See also:

tabs OMD - Enola Gay tabs Lady Gaga - Just Dance tabs Panic! At The Disco - Northern Downpour tabs The Speaks - High tabs Plain White T's - Hey there delilah tabs A Day to Remember - All I Want
e-chords

Other versions:

tabs Two Steps From Hell - Star Sky
auto scroll beats size up size down change color hide chords drawings
tab show chords e-chords YouTube Clip e-chords hide all tabs e-chords go to top tab

share