Two Steps From Hell

Flight Of The Silverbird

Two Steps From Hell

tabs

by  HUGO_RODRIGUES

save to print version add songbook text version e-mail correct tuner
chordsukulelecavacokeyboardtabbassdrumsharmonicaflute Guitar Pro
close

there isn't a video lesson for this song

chords

Flight Of The Silverbird

	  		Into 0:00-1:10 

e|---3-0-----3-0---|-0----0----0-3-5-7-5-3-0---|-0----0----0-3-5-7-10-| 
B|-------0-------0-|----3----3---------------3-|----3----3------------| 
G|-----------------|---------------------------|----------------------| 
D|-----------------|---------------------------|----------------------| 
A|-----------------|---------------------------|----------------------| 
E|-0-------0-------|---------------------------|----------------------| 

e|-7-10-12--10-12--10-12-15-17-19-17-15-12-10-|-12-10-7-12-5-3-5-7-5-3-3-| 
B|--------------------------------------------|--------------------------| 
G|--------------------------------------------|--------------------------| 
D|--------------------------------------------|--------------------------| 
A|--------------------------------------------|--------------------------| 
E|--------------------------------------------|--------------------------| 

e|---------------------------|---------------------|---------------------------------| 
B|-----------------3---------|------------3-6--3---|-3-6-8--6-8--6-3-6---------------| 
G|-------------3-5---5-3-----|--------3-5--------5-|-------------------5-3-5-3-------| 
D|-5--3-5--3-5-----------5-3-|-5--3-5--------------|---------------------------5-3-5-| 
A|---------------------------|---------------------|---------------------------------| 
E|---------------------------|---------------------|---------------------------------| 

e|-------------| 
B|---------3---| 
G|-----3-5---5-| 
D|-3-5---------| 
A|-------------| 
E|-------------| 
		  

See also:

tabs Phoenix - Everything is everything tabs Phoenix - Lisztomania tabs Dead or Alive - You spin me right round tabs Lindsey Stirling - Crystallize tabs JerryC - CAnoN RoCk .1. tabs Vanilla Ice - Ice ice baby (intro)
e-chords

Other versions:

tabs Two Steps From Hell - Flight Of The Silverbird
auto scroll beats size up size down change color hide chords drawings
tab show chords e-chords YouTube Clip e-chords hide all tabs e-chords go to top tab

share