Two Steps From Hell

I Love You Forever

Two Steps From Hell

tabs

by  ABELAMIN

save to print version add songbook text version e-mail correct tuner
chordsukulelecavacokeyboardtabbassdrumsharmonicaflute Guitar Pro
close

there isn't a video lesson for this song

chords

I Love You Forever

	  		
Intro 
E|----------------------------------------------------------------------------------------------------------| 
B|--3--2--2h3--3--3-----2--2h3--3/5--5-----7p5--3--5--3--5--3--5/7--3--2-----5--3--5--3--5--3--7--2--0-----3| 
G|----------------------------------------------------------------------------------------------------------| 
D|----------------------------------------------------------------------------------------------------------| 
A|----------------------------------------------------------------------------------------------------------| 
E|----------------------------------------------------------------------------------------------------------| 

E|-----------| 
B|--2--3-----| 
G|-----------| 
D|-----------| 
A|-----------| 
E|-----------| 

Chorusx2 
E|----------------------------------------------------------------------------------------------------------| 
B|----------------------------------------------------------------------------------------------------------| 
G|--7--9--11--7--9--11--7--9--11--7--12--11--7--9--11--7--9--11--7--9--11--7--12--11--7--9--11--7--9--11--7-| 
D|----------------------------------------------------------------------------------------------------------| 
A|----------------------------------------------------------------------------------------------------------| 
E|----------------------------------------------------------------------------------------------------------| 

E|----------9--10------------------------------------9--10--| 
B|----------------------------------------------------------| 
G|-9--11--7-------7--11--12--7--11--12--7--11--12--7--------| 
D|----------------------------------------------------------| 
A|----------------------------------------------------------| 
E|----------------------------------------------------------| 

Bridgex5 
E|--------------5--| 
B|--3--------------| 
G|-----------------|  let it ring 
A|-----------------| 
A|-----------------| 
E|-----------------| 

Solox2 
E|--5v-----7-----7/9--10-----------------------------------------------------------------------------------| 
B|------------------------7--8p7--5--5--3--5--3--5--3--5/7--3--2-----5--3--5--3--5--3-----5/7--2--0--------| 
G|---------------------------------------------------------------------------------------------------2-----| 
D|---------------------------------------------------------------------------------------------------------| 
A|---------------------------------------------------------------------------------------------------------| 
E|---------------------------------------------------------------------------------------------------------| 

Chorus x2 
E|----------------------------------------------------------------------------------------------------------| 
B|----------------------------------------------------------------------------------------------------------| 
G|--7--9--11--7--9--11--7--9--11--7--12--11--7--9--11--7--9--11--7--9--11--7--12--11--7--9--11--7--9--11--7-| 
D|----------------------------------------------------------------------------------------------------------| 
A|----------------------------------------------------------------------------------------------------------| 
E|----------------------------------------------------------------------------------------------------------| 

E|----------9--10-------------------------------------------| 
B|---------------------------------------------------9--10--| 
G|-9--11--7-------7--11--12--7--11--12--7--11--12--7--------| 
D|----------------------------------------------------------|   let it ring 
A|----------------------------------------------------------| 
E|----------------------------------------------------------| 



************************************ 

| h  Hammer-on 
| p  Pull-off 
| /  Slide up 

************************************ 
		  

See also:

tabs OMD - Enola Gay tabs Lady Gaga - Just Dance tabs Panic! At The Disco - Northern Downpour tabs The Speaks - High tabs Plain White T's - Hey there delilah tabs A Day to Remember - All I Want
e-chords

Other versions:

tabs Two Steps From Hell - I Love You Forever
auto scroll beats size up size down change color hide chords drawings
tab show chords e-chords YouTube Clip e-chords hide all tabs e-chords go to top tab

share